PrimaNota.ru - самый крупный в мире бесплатный архив песенных текстов, аккордов, табулатур и нот


Red - Already Over Pt 2 - текст песни, таба, видео

Регистрация Запомнить меня
Войти через:  Facebook Google Twitter Vk Yandex Mail.ru

Red - Already Over Pt 2 - текст песни, таба, видео

Печатать
Просмотров: 416
----------------------------------------------------------------------------
			Already Over Part 2 - Red
----------------------------------------------------------------------------Tabbed by: Karleen Heong
Email: the_aurora_australis@hotmail.com

Tuning: Standard EADGBe

This is track 11 on End of Silence, the acoustic version of Already Over.
This tab isn't perfect, but it's how I would play it. Plus,The strings drowned out a lot
of the guitar notes...well I tried.

--------------------------------------------------
Order:

Intro: Riff 1 ---> x1

Verse 1: Riff 1 ---> x2 then Riff 2 ---> x1

Chorus 1: Chorus chords ---> x1 then Riff 1 ---> x1

Verse 2: Riff 1 ---> x2 then Riff 2 ---> x1

Chorus 2: Chorus Notes ---> x1

Bridge: Bridge Notes ---> x1

Outro: Riff 1 ---> x13 (I actually counted) and fade out
       (If you wanna cut it short end on the outro chord below)
---------------------------------------------------

Riff 1
e|----------------------------------------|
B|-----3-----3------------2-----2---------|
G|-------4-----4------------4-----2-------|
D|---4-----4-----4------2-----2-----2-----|
A|-2------------------0-------------------|
E|----------------------------------------|

e|----------------------------------------|
B|-----3-----3------------2---------0-----|
G|-------4-----4------------4-----4-------|
D|---4-----4-----4------2-----------------|
A|-2------------------0---------2---------|
E|----------------------------3-----------|
Note: For the A chord hold the usual shape and stick your pinky on 
      the 4th fret then take it off
      For the G chord at the end use middle finger on 6th string,
      index on 5th.

Riff 2
e|--------------------------------------|
B|-------0------------------------------|
G|-----4-----4--------------0-----------|
D|------------------------2----2-pause--|
A|---2---------2--------2---------------|
E|-3-------------3----0-----------------|

Chorus chords
e|-2-------2------0------3------3-------|
B|-3-------3------2------3------3-------|
G|-4-------2------2------4------4-------|
D|-4-------0------2------5------5-------|
A|-2-------0------0------5------5-------|
E|-----(let ring)--------3------3-------|
Note: In the recording it's just strings but these chords are good

Chorus Notes
e|-----------------------------------------------------------|
B|-----3-----3-------------------------------2-----2---------|
G|-------4-----4----------7-7---7--------------4-----2-------|
D|---4-----4-----4------7---------7--------2-----2-----2-----|
A|-2------------------5-------------5----0-------------------|
E|-----------------------------------------------------------|

e|-----------------------------------------------------------|
B|-------0-----------------------------------3-----3---------|
G|-----4-----4------------7-7---7--------------4-----4-------|
D|----------------------7---------7--------4-----4-----4-----|
A|---2---------2------5-------------5----2-------------------|
E|-3-------------3-------------------------------------------|

e|-----------------------------------------------------------|
B|-----2-----2-------------0------------------0-------2-2----|
G|-------4-----2---------4-----4------------4----------------|
D|---2-----2-----2----------------------------------2--------|
A|-0-------------------2---------2--------2-------0----------|
E|-------------------3-------------3----3--------------------|

Bridge Notes
e|-----------------------------------------------------------|
B|------------------------2-----2------------3-----3---------|
G|-----4-4------------------4-----2------------4-----4-------|
D|-----------5----------2-----2-----2------4-----4-----4-----|
A|---5---------5-0----0------------------2-------------------|
E|-3---------------------------------------------------------|

e|-----------------------------------------------------------|
B|-----2-----2-------------------------------2-----2---------|
G|---2---2-----2----------4-----4----------2---4-----2-------|
D|---------2-----2----------5-----5--------------2-----2-----|
A|-4--------------------5-----------0----0-------------------|
E|--------------------3--------------------------------------|
Note: For the A chord with base C#, bar fret 2 with index with ring 
      finger on fret 4

e|-----------------------------------------------------------|
B|-----3-----3------------2-----2----------------------------|
G|-------4-----4--------2---2-----2----------4-------4-------|
D|---4-----4-----4------------2-----2----------5-------5-----|
A|-2------------------4--------------------5-------5---------|
E|---------------------------------------3-------3-----------|

e|-----------------------2---------------------------15-14---|
B|-----2-----------------3---------------------14-15---------|
G|-------2-pause---------2--long pause--------(piano bit)----|
D|---2-------------------0-----------------------------------|
A|-0---------------------2-----------------------------------|
E|-----------------------------------------------------------|
			 ^ 
	Play this with fingers 1,2,3 on respective strings 
	and pinky on 3rd fret note

Outro Chord
e|--2-----|
B|--3-----|
G|--4-----|
D|--4-----|
A|--2-----|
E|--------|

That's it. Shouldn't be hard to play. BTW this is in a different key 
to the original Already Over song (track 4) so if you want to combine 
the two versions you'll need to transpose. Enjoy the tab and please 
rate! Comments, suggestions, please email.

============================================================================
Добавлено: 14.07.2012
Другие материалы по этой песне:
  • Аккорды и текст

Страница создана 14.07.2012
http://primanota.ru/red/already-over-pt-2-chords.htm
Привет, Гость.
Предлагаем пройти революционный курс по гитаре.
Подарок от PrimaNota.Ru, забирай!