PrimaNota.ru - самый крупный в мире бесплатный архив песенных текстов, аккордов, табулатур и нот


Red Warszawa - Tror Du Det Er For Sjov Jeg Drikker - бас-таба, видео

Регистрация Запомнить меня
Войти через:  Facebook Google Twitter Vk Yandex Mail.ru

Red Warszawa - Tror Du Det Er For Sjov Jeg Drikker - бас-таба, видео

Печатать
Просмотров: 72
Intro
G--------------------------------------|
D--------------------------------------|
A--------------------------------------|
E-0-0-0-0-0-0-0-0------0-0-0-0-0-0-0-0-|

G-----------------------------------------------------------------|
D-----------------------------------------------------------------|
A-----------------3-3-3-3-3-3-3-3-----------------3-3-3-3-3-3-3-3-|
E-0-0-0-0-0-0-0-0-----------------0-0-0-0-0-0-0-0-----------------|

G-----------------------------------------------------------------|
D-----------------------------------------------------------------|
A-----------------3-3-3-3-3-3-3-3-----------------5-5-5-5-5-5-5-5-|
E-0-0-0-0-0-0-0-0-----------------0-0-0-0-0-0-0-0-----------------|

G------------------------------------------------------------------------|
D------------------------------------------------------------------------|
A--------3--------------5----------------------------3-----------------7-|
E--------------------------0-0-0-0-0-0-0-0-0-0-0-0-0---0-0-0-0-0-0-0-0---|

Vers
G-----------------------------|
D-----------------------------|
A---------------------------3-|
E-0-0-0-0-0-0-0-0-0-0-0-0-0---|

G-----------------------------|
D-----------------------------|X 2
A---------------------------5-|
E-0-0-0-0-0-0-0-0-0-0-0-0-0---|

Omkvæd
G-----------------------------------------------------------------|
D-----------------------------------------------------------------| X 2
A-7-7-7-7-7-7-7-7-5-5-5-5-5-5-5-5-0-0-0-0-0-0-0-0-0-0-0-0-0-0-4-5-|
E-----------------------------------------------------------------|

G------------------------------------------------------------------|
D------------------------------------------------------------------| X 2
A-----------------3-3-3-3-3-3-3-3-----------------5-5-5-5-5-5-5-5--|
E-0-0-0-0-0-0-0-0-----------------0-0-0-0-0-0-0-0------------------|

For-Vers
G------------------------------------------------------------|
D------------------------------------------------------------|
A---------------------------3---------------------------5----|
E-0-0-0-0-0-0-0-0-0-0-0-0-0---0-0-0-0-0-0-0-0-0-0-0-0-0------|

G-----------------------------------------------|
D-----------------------------------------------|
A---------------------------3-----------------7-|
E-0-0-0-0-0-0-0-0-0-0-0-0-0---0-0-0-0-0-0-0-0---|

-Vers
-Omkvæd
-For-Vers

Solo
G----------------------------------|
D----------------------------------| X 8
A----------------------------------|
E-2-2-2-2-2-2-2-2-2-2-2-2-2-3/5-5--|

G-------9-9-7-7-------------------|
D---------------9--9-7-5-7--7-----|
A---------------------------------|
E-0~---------------------------0~-|

For-Vers 2
G----------------------|
D----------------------|
A---------3----------5-|
E----------------------|

-Vers

Outro
G-----------------------------------------------------------------|
D-----------------------------------------------------------------| X 2
A-7-7-7-7-7-7-7-7-5-5-5-5-5-5-5-5-0-0-0-0-0-0-0-0-0-0-0-0-0-0-4-5-|
E-----------------------------------------------------------------|

G--------------------------------------------------------------------|
D--------------------------------------------------------------------|
A-----------------3-3-3-3-3-3-3-3-----------------5-5-5-5-5-5-5-5--5-|
E-0-0-0-0-0-0-0-0-----------------0-0-0-0-0-0-0-0--------------------|
Добавлено: 18.06.2012
Другие материалы по этой песне:
  • Аккорды и текст

Страница создана 18.06.2012
http://primanota.ru/red-warszawa/tror-du-det-er-for-sjov-jeg-drikker-chords.htm
Привет, Гость.
Предлагаем пройти революционный курс по гитаре.
Подарок от PrimaNota.Ru, забирай!