PrimaNota.ru - самый крупный в мире бесплатный архив песенных текстов, аккордов, табулатур и нот


Red Warszawa - Skinboy - таба, бас-таба, видео

Регистрация Запомнить меня
Войти через:  Facebook Google Twitter Vk Yandex Mail.ru

Red Warszawa - Skinboy - таба, бас-таба, видео

Печатать
Просмотров: 167
----------------------------------------------------------------------------
                            Skin Boy - Red Warszawa
----------------------------------------------------------------------------
Tabbed by: Bee-Ay
Email: Leviathan_ben@hotmail.com

Tuning: Standard

Hello i want to explain this tab in danish, because i am pretty sure
that only danish people know this song.

Hej! - Ja? Følgende forklaringer kommer..

Omkvæd:
e|-----|--------------------------------------------------------------------|
B|-----|--------------------------------------------------------------------|
G|-----|*-------------------------------------------------------------------|
D|-///-|*--2-2-2-2-2-2-2-2--5-5-5-5--7-7-7-7--2-2-2-2-2-2-2-2-2-2-2-2--5-7--|
A|-///-|---2-2-2-2-2-2-2-2--5-5-5-5--7-7-7-7--2-2-2-2-2-2-2-2-2-2-2-2--5-7--|
E|-///-|---0-0-0-0-0-0-0-0--3-3-3-3--5-5-5-5--0-0-0-0-0-0-0-0-0-0-0-0--3-5--|

e|-----------------------------------------------------------------------|
B|-----------------------------------------------------------------------|
G|----------------------------------------------------------------------*|
D|-2-2-2-2-2-2-2-2--5-5-5-5--7-7-7-7--5-5-5-5-5-5-5-5--7-7-7-7-7-7-7-7--*|
A|-2-2-2-2-2-2-2-2--5-5-5-5--7-7-7-7--3-3-3-3-3-3-3-3--5-5-5-5-5-5-5-5---|
E|-0-0-0-0-0-0-0-0--3-3-3-3--5-5-5-5--3-3-3-3-3-3-3-3--5-5-5-5-5-5-5-5---|


Vers:
e|----------------------------------------------------------|
B|----------------------------------------------------------|
G|*-------------------------------------------2-2-2--2-2-2-*|
D|*-0h2--2--2-2--0h2--2--2-2----0h2--2--2-2---2-2-2--2-2-2-*|
A|--0h2--2--2-2--0h2--2--2-2----0h2--2--2-2---0-0-0--0-0-0--|
E|--0----0--0-0--0----0--0-0----0----0--0-0-----------------|


Stykke Op til omkvæd:
e|--------------------------------------|
B|--------------------------------------|
G|*-2-2-2-2--4-4-4-4--5-5-5--7-7-7-7-7-*|
D|*-0-0-0-0--0-0-0-0--0-0-0--0-0-0-0-0-*|
A|--------------------------------------|
E|--------------------------------------|


B-Stykke:
" Der' også en skinboy, i Italien "
e|------------------------------------------------------|
B|------------------------------------------------------|
G|---------------------------2--------------------------|
D|-5------2------5-----2-----2-----5---5-----7----5---7-|
A|-3------2------3-----2-----0-----5---3-----7----5---7-|
E|-3------0------3-----0-----------3---3-----5----3---5-|

Solo:
e|--------------------------------------------------------------------------|
B|--------------------------------------------------------------------------|
G|-/--12-------12----12------12/-14----14---14------14/-16---16-///-16~//---|
D|-/------14------14----14---14/----16----16---16---16/----17---///---------|
A|--------------------------------------------------------------------------|
E|--------------------------------------------------------------------------|

e|--------------------------------------------------------------------------|
B|--------------------------------------------------------------------------|
G|-/--12-------12----12------12/-14----14-----------------------------------|
D|-/------14------14----14---14/----16-----12-12-12-12/9--9-9~~----///------|
A|--------------------------------------------------------------------------|
E|--------------------------------------------------------------------------|

e|-------------------------------------------------------------------------|
B|--------------------------------------------------------0(3)tre----------|
G|----------------------------------------------------0(2)tre-----/9~-/7-/2|
D|------------------------------------------------0(2)tre------------------|
A|--3~--3/5--5/7--7/3--3/2~---------3-2-0-----0(2)tre----------------------|
E|---------------------------3-0-3~----------------------------------------|


Meget prograsivt skifte vil jeg gerne sige:

e|--10p8p7--7-7--7h8h10--10-10~--7h8h10--10-8-7-----------------------------10p8p7--5-5h7~--|
B|----------------------------------------------10~--10-10-10-10-10-8-7-7-------------------|
G|-------------------------------------------------------------------------7----------------|
D|------------------------------------------------------------------------------------------|
A|------------------------------------------------------------------------------------------|
E|------------------------------------------------------------------------------------------|

e|--10p8p7--7-7--7h8h10--10-10~--7h8h10--10-8-7-----------------------------10p8p7-------|
B|----------------------------------------------10~--10-10-10-10-10-8-7-7----------10-8~-|
G|-------------------------------------------------------------------------7-------------|
D|---------------------------------------------------------------------------------------|
A|---------------------------------------------------------------------------------------|
E|---------------------------------------------------------------------------------------|

Meget meget hyggelig sang.

Symboler:
~: Vrid lidt i tonen.
~~: Vrid meget i tonen.
Tre: Tremolo.
/: Slide.
///: Slide langs gribebrættet, eller meget hurtigt slide.
p: Pull-Off
h: Hammer-On
Добавлено: 29.04.2012
Другие материалы по этой песне:

Страница создана 03.04.2012
http://primanota.ru/red-warszawa/skinboy-chords.htm
Привет, Гость.
Предлагаем пройти революционный курс по гитаре.
Подарок от PrimaNota.Ru, забирай!