PrimaNota.ru - самый крупный в мире бесплатный архив песенных текстов, аккордов, табулатур и нот


Red Warszawa - Mosekonen Brygger - бас-таба, видео

Регистрация Запомнить меня
Войти через:  Facebook Google Twitter Vk Yandex Mail.ru

Red Warszawa - Mosekonen Brygger - бас-таба, видео

Печатать
Просмотров: 116
Уроки эстрадного вокала в Санкт-Петербурге
gider ikke beskrive :P


Intro/Omk;
----------------|
----------------|
--5-5/7-7-7/8-8-|
-0-----0--------|x4


----------------------|
----------------------|
----------------------|
-88888888--7777--3333-|


------------------|
------------------|
--5-5/7-7-7/8-8---|
-0-----0-------0~-|

Overgang til omk(Der findes måder man kan...);
-------------------------------------|
-------------------------------------|
-----------22222222--33333333--55555-|
-22222222----------------------------|

Intro/Omk;
----------------|
----------------|
--5-5/7-7-7/8-8-|
-0-----0--------|x4


----------------------|
----------------------|
----------------------|
-88888888--7777--3333-|


------------------|
------------------|
--5-5/7-7-7/8-8---|
-0-----0-------0~-|

Break og guitar solo;
---------------------------------|
---------------------------------|
---------5-3-2---3-2-----------2-|
-0-2-3-0-------5----5-3--2-3-5---|x6
Добавлено: 27.06.2012
Другие материалы по этой песне:
  • Аккорды и текст

Страница создана 27.06.2012
http://primanota.ru/red-warszawa/mosekonen-brygger-chords.htm
Привет, Гость.
Предлагаем пройти революционный курс по гитаре.
Подарок от PrimaNota.Ru, забирай!