PrimaNota.ru - самый крупный в мире бесплатный архив песенных текстов, аккордов, табулатур и нот


Red Warszawa - Jeg Headbanger Stadig - таба, видео

Регистрация Запомнить меня
Войти через:  Facebook Google Twitter Vk Yandex Mail.ru

Red Warszawa - Jeg Headbanger Stadig - таба, видео

Печатать
Просмотров: 87
----------------------------------------------------------------------------
                   Jeg Headbanger Stadig - Red Warszawa
----------------------------------------------------------------------------
Tabbed by: Bee-Ay
Email: Leviathan_ben@hotmail.com

Tuning: Standard.

Intro, vers OG omkvæd:
e|-------------------------------------------------------------------------|
B|-------------------------------------------------------------------------|
G|*-----------------------------------------------------------------------*|
D|*------------------------------------------------------------------4-4--*|
A|--------------------------------------------------------------2-2--2-2---|
E|---1h2-2--1h2-2--1h2---1h2-2--1h2-2--1h2---1h2-2--1h2-2--1h2--0-0--------|

e|-----------------------------------------------------------------------------|
B|-----------------------------------------------------------------------------|
G|-----------------------------------------------------------------------------|
D|-6--6-6--7-7-------6--6-6--7-7-------6--6-6--7-7-------9-9-9-9-9-9-9-9-11-//-|
A|-4--4-4--5-5-7-7---4--4-4--5-5-7-7---4--4-4--5-5-7-7---9-9-9-9-9-9-9-9-11-//-|
E|-4--4-4--5-5-5-5---4--4-4--5-5-5-5---4--4-4--5-5-5-5---7-7-7-7-7-7-7-7--9-//-|

Jeg headbanger hund - Jeg headbanger mus
Jeg headbanger bil - Jeg headbanger hus
Jeg headbanger alt jeg overhodet ka'
JEG HEADBANGER METALLICA:

[ Solo ]

Den er rimelig svær:
e|----------------------------------------------------------------------------|
B|----------------------------------------------------------------------------|
G|*-------------------14--14-16-17-16-14--------------------------------------|
D|*----------------14---------------------14-17p14---15-19p15-----------------|
A|---/12--12-14-15----------------------------------------------15-19p15------|
E|------------------------------------------------------------------------15~-|

e|-------------------------------------------------------14h15h17-19--17h19p17-------------------|
B|-------------------------------------------15/17-17/19------------------------17-15----15h17---|
G|--------------------14--14-16-17-16-14-16-------------------------------------------17--------*|
D|-----------------14---------------------------------------------------------------------------*|
A|----12--12-14-15-------------------------------------------------------------------------------|
E|-----------------------------------------------------------------------------------------------|


Rytme i soloen:
e|--------------------------|--------------------------|
B|--------------------------|--------------------------|
G|*--2----------------------|--2-------------2--------*|
D|*--2----2--3--5--7--7--5--|--2----2--3--5--2--5--2--*|
A|---0----2--3--3--5--7--5--|--0----2--3--3--0--5--2---|
E|--------0--1--3--5--5--3--|-------0--1--3-----3--0---|

JEG HEADBANGER STADIIIIIGG!!!
Добавлено: 18.03.2012
Другие материалы по этой песне:

Страница создана 18.03.2012
http://primanota.ru/red-warszawa/jeg-headbanger-stadig-chords.htm
Привет, Гость.
Предлагаем пройти революционный курс по гитаре.
Подарок от PrimaNota.Ru, забирай!