PrimaNota.ru - самый крупный в мире бесплатный архив песенных текстов, аккордов, табулатур и нот


Red Warszawa - Er Du Lidt Tyk - таба, видео

Регистрация Запомнить меня
Войти через:  Facebook Google Twitter Vk Yandex Mail.ru

Red Warszawa - Er Du Lidt Tyk - таба, видео

Печатать
Просмотров: 104
----------------------------------------------------------------------------
                             Er Du Lidt Tyk - Red Warszawa
----------------------------------------------------------------------------
Tabbed by: Bee-Ay
Email: Leviathan_ben@hotmail.com

Tuning: Standard.

Ja....? Meget vanvittig sang..

Vers:
e|------------------------------------|
B|------------------------------------|
G|*----------------------------------*|
D|*-------------------------------3--*|
A|---2-2-2--5/4---4/5-------5/4---3---|
E|---0-0-0--3/2-0-2/3-0-0-0-3/2-0-1---|
Pm:  . . .      .     . . .     .


Omkvæd:
e|--------------------------------------------------------------------|
B|--------------------------------------------------------------------|
G|*------------------------------------------------------------------*|
D|*--2-2---5-4-3-----2-2---5-4-3-----2-2---5-4-3----5-5-5-5-4-4-4-4--*|
A|---0-0---3-2-1-----0-0---3-2-1-----0-0---3-2-1----5-5-5-5-4-4-4-4---|
E|---0-0---3-2-1-----0-0---3-2-1-----0-0---3-2-1----3-3-3-3-2-2-2-2---|

Stykket lige efter omkvæd:
e|---------------------------------------------------------
B|---------------------------------------------------------
G|---------------------------------------------------------
D|---4-4---7-6-5-----4-4---7-6-5-----4-4---7-6-5----7--6---
A|---2-2---5-4-3-----2-2---5-4-3-----2-2---5-4-3----7--6---
E|---2-2---5-4-3-----2-2---5-4-3-----2-2---5-4-3----5--4---

e|--------------------------------------------------------------|
B|--------------------------------------------------------------|
G|--------------------------------------------------------------|
D|---4-4---7-6-5-----4-4---7-6-5-----4-4---7-6-5----7--6----2---|
A|---2-2---5-4-3-----2-2---5-4-3-----2-2---5-4-3----7--6----2---|
E|---2-2---5-4-3-----2-2---5-4-3-----2-2---5-4-3----5--4----0---|

B-Stykke:
e|--------------------------------------------------------------------|
B|--------------------------------------------------------------------|
G|*------------------------------------------------------------------*|
D|*------------------------------------------------------------------*|
A|------------------------------------------------------------5-6-7---|
E|---3-0-2-0-3-0-2-0-3-0-2-0-3-0-2-0-3-0-2-0-3-0-2-0-3-0-2-0--3-4-5---|
pm:  . . . . . . . . . . . . . . . . . . . . . . . . . . . .


Rimelig skummelt skifte. Husk ren guitar:
e|---10-10--10-10--x-x--12-12--12-12---|
B|---10-10--10-10--x-x--12-12--12-12---|
G|*--10-10--10-10--x-x--12-12--12-12--*|
D|*-----------------------------------*|
A|-------------------------------------|
E|-------------------------------------|

Efter det skumle skift, vender det bare tilbage til B-Stykker.
Efter det er spillet nogle gange med "Du er tyk, du er tyk, du er tyk, TYK"
slutter det bare med en E5 akkord:

e|-------|
B|-------|
G|-------|
D|---2---|
A|---2---|
E|---0---|


Og det er sku egnetlig bare det?! - Hele sangen er her, Fede svin!


x: Muffled stringe.
pm: Palm-Mute.


Добавлено: 16.06.2012
Другие материалы по этой песне:
  • Аккорды и текст

Страница создана 16.06.2012
http://primanota.ru/red-warszawa/er-du-lidt-tyk-chords.htm
Привет, Гость.
Предлагаем пройти революционный курс по гитаре.
Подарок от PrimaNota.Ru, забирай!