PrimaNota.ru - самый крупный в мире бесплатный архив песенных текстов, аккордов, табулатур и нот


Red Warszawa - Emdrup Torv - таба, видео

Регистрация Запомнить меня
Войти через:  Facebook Google Twitter Vk Yandex Mail.ru

Red Warszawa - Emdrup Torv - таба, видео

Печатать
Просмотров: 107
Уроки эстрадного вокала в Санкт-Петербурге
-------------------------------------------------------------------------------
                             Emdrup Torv - Red Warszawa
-------------------------------------------------------------------------------
Tabbed by: Djinindi

Tuning: E A D G B e

INTRO
e|-0--0-0-0---0--0--0---0----0--0-0-0---0--0-0---0---0--0--0-0-0----0--10-101010|
B|-8--8-8-8\7-5--3--3/5-0----8--8-8-8\7-5--3-3/5-5\3-3--8--8-8-8\7--5--7--7/8-8-|
G|*-----------------------------------------------------------------------------|
D|*-----------------------------------------------------------------------------|
A|------------------------------------------------------------------------------|
E|------------------------------------------------------------------------------|

e|-0--0-0-0---0--0--0---0-----|
B|-8--8-8-8\7-5--3--3/5-5-----|
G|---------------------------*|
D|---------------------------*|
A|----------------------------|
E|----------------------------|

Vers
e|--0----0--0-0--0-0-0-0-0-0-0-3----3--3-2--2-2-2-2-2-2-2-2--2-2-2--2-2--2-2-2-5--2--|
B|--0----0--0-0--0-0-0-0-0-0-0-0----0--0-3--3-3-3-3-3-3-3-3--3-3-3--3-3--3-3-3-3--3--|
G|*-0----0--0-0--0-0-0-0-0-0-0-0----0--0-4--4-4-4-4-4-4-4-2--2-2-2--2-2--2-2-2-0--2-*|
D|*-2----2--2-2--2-2-2-2-2-2-2-0----0--0-0--0-0-0-0-0-0-0-0--0-0-0--0-0--0-0-0-0--0-*|
A|--2----2--2-2--2-2-2-2-2-2-2-2----2--2-2--2-2-2-2-2-2-2----------------------------|
E|--0----0--0-0--0-0-0-0-0-0-0-3----3--3---------------------------------------------|
   1. gang                       2. gang
e|-0--0-0-0--0-0--0-0-0-2-2-2--|-0--0-0-0--0-0--0-0-0-0-0-0-0--|
B|-0--0-0-0--0-0--0-0-0-3-3-3--|-0--0-0-0--0-0--0-0-0-0-0-0-0--|
G|-0--0-0-0--0-0--0-0-0-2-2-2--|-0--0-0-0--0-0--0-0-0-0-0-0-0--|
D|-2--2-2-2--2-2--2-2-2-0-0-0--|-2--2-2-2--2-2--2-2-2-2-2-2-2--|
A|-2--2-2-2--2-2--2-2-2--------|-2--2-2-2--2-2--2-2-2-2-2-2-2--|
E|-0--0-0-0--0-0--0-0-0--------|-0--0-0-0--0-0--0-0-0-0-0-0-0--|

Omkvæd
e|---------------------------------------------------------------------------------------|
B|---------------------------------------------------------------------------------------|
G|---------------------------------------------------------------------------------------|
D|-7--------5----9----7--------5----9----7--------5----9----2-------------5----2---------|
A|-5--------3----7----5--------3----7----5--------3----7----0--------5----3----2---------|
E|-5--------3----7----5--------3----7----5--------3----7-------------3----3----0---------|

Solo Rytme Guitar
e|----------------------------------------------------------------------------------|
B|------------------------3---------------3----------------------3----------------3-|
G|-------------------4----2---------------2-----------------4----2----------------2-|
D|-----2--------5----4----0--------2------0---2--------5----4----0----2-------2-2-0-|
A|-2-2-2--------5----2-------------2----------2--------5----2---------2-------2-2---|
E|-0-0-0--------3------------------0----------0--------3--------------0-------0-0---|

e|----------------------------------------------------------------------|
B|-----------3------------------3---------------------------------------|
G|-5---------2--------5---------2--------5---------2-------------5------|
D|-5----2----0--------5----2----0--------5----2----2--------5----5----2-|
A|-3----2-------------3----2-------------3----2----0--------5----3----2-|
E|------0------------------0------------------0-------------3---------0-|

Distortion Vers
e|-----------------------------------------------------------------------------|
B|-----------------------------------------------------------------------------|
G|-----------------------------------------------------------------------------|
D|-2------------4----7--------2-----7---2-------------4----7--------2----------|
A|-2-------5----2----5--------2-----5---2--------5----2----5--------2------2-2-|
E|-0-------3----2----5--------0-----5---0--------3----2----5--------0------0-0-|

Form:
Intro x2
Vers
Omkvæd
Vers
Omkvæd
Intro
Solo
Distortion Vers
Omkvæd
Intro

| /  slide up
| \  slide down
| h  hammer-on
| p  pull-off
| ~  vibrato
| +  harmonic
| x  Mute note
===============================================================================
Добавлено: 19.03.2012
Другие материалы по этой песне:

Страница создана 19.03.2012
http://primanota.ru/red-warszawa/emdrup-torv-chords.htm
Привет, Гость.
Предлагаем пройти революционный курс по гитаре.
Подарок от PrimaNota.Ru, забирай!