PrimaNota.ru - самый крупный в мире бесплатный архив песенных текстов, аккордов, табулатур и нот


Red Warszawa - Connie Dans For Mig - таба, видео

Регистрация Запомнить меня
Войти через:  Facebook Google Twitter Vk Yandex Mail.ru

Red Warszawa - Connie Dans For Mig - таба, видео

Печатать
Просмотров: 117
Band:  Red Warszawa
Album:  Omvendte Blå Kors
Song:  Connie Dans For Mig

Copyright (c)  Gusten Fætter Records 2002
Version 1.0 - 21/1 2006

Transcribed By: Per Nielsen (Kværndrup)
Email:          madeintaiwan2@hotmail.com


.  - palm mute           /  - slide up to
\  - slide down to       ~  - vibrato
h  - hammer on           b  - Bend
p  - pull off            Suffixes for bend
t  - tap                 f  - full bend    h - half bend
ph - pinched harmonic    q  - quarter bend t - tap bend
*  - see comment         ^  - Hold bend    r release bend
x  - Stuccatto           ~  - vibrato bend
,  - slight palm mute    () - ghost note, sustained note
"  - tremolo note        <> - Trill

Tuning E A D G B E
The song starts with drum and then a bass doing this:

Bass Intro
|-------------------------|
|-------------------------|
|------0-0-0-------4-4-4--|
|-2-2-2------0-0-0--------|

Then the guitar kicks in:
|-------------------------------------------------------------------|
|-------------------------------------------------------------------|
|-------------------------------------------------------------------|
|-------------------------------------------------------------------|
|---4-0-------------------------------------------------------------|
|-2-----4-5-4-0-4-5-4-0---------------------------------------------|

verse:
|-------------------------------------------------------------------|
|-------------------------------------------------------------------|
|-------------------------------------------------------------------|
|-6-6---------7-7-7-2--2-2------------------------------------------|
|-6-6---------7-7-7-2--2-2------------------------------------------|
|-4-4-0-0-0-0-5-5-5-0--0-0------------------------------------------|

Chorus
|-------------------------------------------------------------------|
|-------------------------------------------------------------------|
|-------------------------------------------------------------------|
|-------------------------------------------------------------------|
|---4-0-------------------------------------------------------------|
|-2-----4-5-4-0-4-5-4-0---------------------------------------------|

Form:
     Intro
           Verse  x8
           Chorus x4
           Verse x8
           Chorus x4
           Verse x8
           Chorus x4
           *Chorus again (but only with bass and drums) x20 Bass
           Then normal Chorus with guitar till you drop dead! 

Have fun!
Добавлено: 30.06.2012
Другие материалы по этой песне:
  • Аккорды и текст

Страница создана 13.04.2012
http://primanota.ru/red-warszawa/connie-dans-for-mig-chords.htm
Привет, Гость.
Предлагаем пройти революционный курс по гитаре.
Подарок от PrimaNota.Ru, забирай!