PrimaNota.ru - самый крупный в мире бесплатный архив песенных текстов, аккордов, табулатур и нот


Red Warszawa - Bilerne Ud Af Byen - таба, видео

Регистрация Запомнить меня
Войти через:  Facebook Google Twitter Vk Yandex Mail.ru

Red Warszawa - Bilerne Ud Af Byen - таба, видео

Печатать
Просмотров: 84
-------------------------------------------------------------------------------
                             Bilerne ud af Byen - Red Warszawa
-------------------------------------------------------------------------------
Tabbed by:Heavy-Freak!
Email:slipomaniac@hotmail.com

Tuning:Standard

Det her er første gang jeg skal prøve at tabbe noget så gi mig lige en chance ikk!

Intro 4x
e|---------------------------------------------------------------------------|
B|---------------------------------------------------------------------------|
G|----------4-----------4-6-4-----------4------------------------------------|
D|----4-6-6---6-6-4-6-6-------6-4-4-6-6---6-6-6------------------------------|
A|----------------------------------------------7-7-4-4----------------------|
E|---------------------------------------------------------------------------|

Riff A Vers 2x
e|---------------------------------------------------------------------------|
B|---------------------------------------------------------------------------|
G|---------------------------------------------------------------------------|
D|--2-2-2-2-2-2-2-2-7-7-7-9-9-9-9-9------------------------------------------|
A|--2-2-2-2-2-2-2-2-7-7-7-9-9-9-9-9------------------------------------------|
E|--0-0-0-0-0-0-0-0-5-5-5-7-7-7-7-7------------------------------------------|

e|---------------------------------------------------------------------------|
B|---------------------------------------------------------------------------|
G|--6-6-6-6-6-6-6-6-----------------4-4-4-4-4-4-4-4-4-4-4-4-4-4-4-4----------|
D|--6-6-6-6-6-6-6-6-4-4-4-4-4-4-4-4-4-4-4-4-4-4-4-4-4-4-4-4-4-4-4-4----------|
A|--4-4-4-4-4-4-4-4-4-4-4-4-4-4-4-4-2-2-2-2-2-2-2-2-2-2-2-2-2-2-2-2----------|
E|------------------2-2-2-2-2-2-2-2------------------------------------------|

Gentag de to øverste rækker

Omkvæd
e|---------------------------------------------------------------------------|
B|---------------------------------------------------------------------------|
G|---------------------------------------------------------------------------|
D|--2-2-2-2-2-2-2-2-7-7-7-9-9-9-9-9-2-2-2-2-2-2-2-2-9-9-9-9-9-9-9-9----------|
A|--2-2-2-2-2-2-2-2-7-7-7-9-9-9-9-9-2-2-2-2-2-2-2-2-9-9-9-9-9-9-9-9----------|
E|--0-0-0-0-0-0-0-0-5-5-5-7-7-7-7-7-0-0-0-0-0-0-0-0-7-7-7-7-7-7-7-7----------|

e|---------------------------------------------------------------------------|
B|---------------------------------------------------------------------------|
G|--6-6-6-6-6-6-6-6-----------------4-4-4-4-7-7-7-9--9-9-9-9-9-9-9-----------|
D|--6-6-6-6-6-6-6-6-4-4-4-4-7-7-7-7-4-4-4-4-7-7-7-9--9-9-9-9-9-9-9-----------|
A|--4-4-4-4-4-4-4-4-4-4-4-4-7-7-7-7-2-2-2-2-5-5-5-7--7-7-7-7-7-7-7-----------|
E|------------------2-2-2-2-5-5-5-5------------------------------------------|

Intro
Vers
Omkvæd
Intro
Så kommer der et langt stykke hvor Lækre Jens holder en Tale

Solo
e|---------------------------------------------------------------------------|
B|---------------------------------------------------------------------------|
G|---------------------------6--------4--------------------------6-8--8/16---|
D|---------------------46--6---6-4--4---4------------------46--6-------------|
A|-3/7-7-7-7-976--6-6-7-------------------7--7-7-976--6-6-7------------------|
E|---------------------------------------------------------------------------|

e|--17-19--------------------------------------------------------------------|
B|---------------------------------------------------------------------------|
G|---------------------------------------------------------------------------|
D|---------------------------------------------------------------------------|
A|---------------------------------------------------------------------------|
E|---------------------------------------------------------------------------|

Vers
Omkvæd
stille omkvæd
2x Omkvæd


Slut

Håber at i syntes om det stykke arbejde jeg har lavet..

Hvis i vil kommentere mit indlæg eller hvis det viser sig at jeg har gjort noget forkert 
hvilket jeg faktisk tvivler på jeg har :P ) så kan i skrive til mig på slipomaniac@hotmail.com

Druk for fred og BILERNE UD AF BYEN!!

| /  slide up
| \  slide down
| h  hammer-on
| p  pull-off
| ~  vibrato
| +  harmonic
| x  Mute note
===============================================================================
Добавлено: 02.05.2012
Другие материалы по этой песне:

Страница создана 06.03.2012
http://primanota.ru/red-warszawa/bilerne-ud-af-byen-chords.htm
Привет, Гость.
Предлагаем пройти революционный курс по гитаре.
Подарок от PrimaNota.Ru, забирай!