PrimaNota.ru - самый крупный в мире бесплатный архив песенных текстов, аккордов, табулатур и нот


Red Tide - The Lost - таба, видео

Регистрация Запомнить меня
Войти через:  Facebook Google Twitter Vk Yandex Mail.ru

Red Tide - The Lost - таба, видео

Печатать
Просмотров: 99
-------------------------------------------------------------------------------
                             The Lost – Red Tide
-------------------------------------------------------------------------------
Tabbed by: Poop Man
Email:Poopman_24@yourmom.com
Distortion all the way through(or metal pedal)
Tuning:Drop D  x = palm hits bridge
This is after the piano intro:
e|---------------------------------------------------------------------------|
B|---------14-------14-------------14-------14------------14------14---------|
G|------13-------13-------13----13-------13-------13---13------13------13----|
D|---11-------11-------11----11-------11-------11----------------------------|
A|---------------------------------------------------0-------0-------0-------|
D|---------------------------------------------------------------------------|
                             Repeat 2 times
e|---------------------------------------------------------------------------|
B|-------14-------14---------------------------------------------------------|
G|----13-------13-------13---------------------------------------------------|
D|---------------------------------------------------------------------------|
A|-11-------11-------11------------------------------------------------------|
D|---------------------------------------------------------------------------|
Crusade |This is after the drums come in    Repeat 2 times    On fourth time:
e|--------------------------------------------------------|-------------------|
B|--------------------------------------------------------|-------------------|
G|--------------------------------------------------------|-------------------|
D|-0-0-x-0-0-x-0-0-x-0-0-1-1-0-0-x-0-0-x-0-0-x-0-0-1-1----|-------------------|
A|-0-0-x-0-0-x-0-0-x-0-0-1-1-0-0-x-0-0-x-0-0-x-0-0-1-1----|-Pick slide Down---|
D|-0-0-x-0-0-x-0-0-x-0-0-1-1-0-0-x-0-0-x-0-0-x-0-0-1-1----|-------------------|
Verse 1        repeat 4 times:
e|---------------------------------------------------------------------------|
B|---------------------------------------------------------------------------|
G|---------------------------------------------------------------------------|
D|-0-0--0-0--0-0--0-0-1-1-0-0--0-0--0-0--0-0-1-1-----------------------------|
A|---------------------------------------------------------------------------|
D|---------------------------------------------------------------------------|
Verse 2         repeat 4 times:
e|---------------------------------------------------------------------------|
B|---------------------------------------------------------------------------|
G|---------------------------------------------------------------------------|
D|-000000000000000000011110000000000000000001111-----------------------------|
A|---------------------------------------------------------------------------|
D|---------------------------------------------------------------------------|
Heavy build-up
e|---------------------------------------------------------------------------|
B|---------------------------------------------------------------------------|
G|---------------------------------------------------------------------------|
D|---------------------------------------------------------------------------|
A|---------------------------------------------------------------------------|
D|-3-1-2-1-3-1-2-1-4-1-3-1-4-1-3-1-3-1-2-1-3-1-2-1-4-1-3-1-4-1-3-1-----------|
MOSH!!!!!!!!!!!!!
e|---------------------------------------------------------------------------|
B|---------------------------------------------------------------------------|
G|---------------------------------------------------------------------------|
D|-3311221133112211441133114411331133112211331122114411331144113311----------|
A|-3311221133112211441133114411331133112211331122114411331144113311----------|
D|-3311221133112211441133114411331133112211331122114411331144113311----------|
Verse 3       repeat 4 times
e|---------------------------------------------------------------------------|
B|---------------------------------------------------------------------------|
G|---------------------------------------------------------------------------|
D|-0-0--0-0--0-0--0-0-3-2-0-0--0-0--0-0--0-0--0-0-3-2------------------------|
A|---------------------------------------------------------------------------|
D|---------------------------------------------------------------------------|


Song order: Piano intro, Guitar intro, Heavy metal, Crusade. Verse 1, Crusade, Verse 
2, Heavy build-up, Mosh, Mosh solo, Crusade, Verse 3, Crusade AHHHHH……
Добавлено: 22.06.2012
Другие материалы по этой песне:
  • Аккорды и текст

Страница создана 22.06.2012
http://primanota.ru/red-tide/the-lost-chords.htm
Привет, Гость.
Предлагаем пройти революционный курс по гитаре.
Подарок от PrimaNota.Ru, забирай!