PrimaNota.ru - самый крупный в мире бесплатный архив песенных текстов, аккордов, табулатур и нот


Red Sun Rising - The Otherside - таба, видео

Регистрация Запомнить меня
Войти через:  Facebook Google Twitter Vk Yandex Mail.ru

Red Sun Rising - The Otherside - таба, видео

Печатать
Просмотров: 290
Авторы: Tyler Valendza, Bob Marlette, Mike Protich, Ryan Williams

Red Sun Rising: The Otherside

Transcribed by: mysticguitar77

Facebook: https://www.facebook.com/MysticGuitar77
YouTube Channel: https://www.youtube.com/user/MysticGuitar77

Date last modified: July 27, 2015

Tuning: Drop C# (C#,G#,C#,F#,A#,D#)

Riff 1 (clean, let all notes ring out)   "I know I'm not as hot as the flame that burns..."
D#|----------------------------|
A#|----------------------------|
F#|----------------------------|
C#|--------------------0-------|
G#|---0-5/8~-----8-------------|
C#|-0----------9---9-5---5-3b~-|

Play Riff 1 x6   "I've been flipping through all of your moments..."

Riff 2 (light distortion)   "How long, how long can you carry this note..."
D#|-------------------------------|
A#|-------------------------------|
F#|-------5------5-------2----0h2-|
C#|-----3----3---------0----0-----| x2
G#|---3--------3-----0------------|
C#|-3--------------0--------------|

D#|---------------------------------|
A#|---------------------------------|
F#|-------5------5------------------|
C#|-----3----3------5-5-5-5-5-5-5-5-|
G#|---3--------3----5-5-5-5-5-5-5-5-|
C#|-3---------------5-5-5-5-5-5-5-5-|
                    * * * *

Riff 3   "Crawling through mud what's the difference..."
D#|----------------------------------------------------------------------------|
A#|-3--3--3-3-3-3--3-3-3--3--3-3-3-3--3-3--------------------------------------|
F#|-2--2--2-2-2-2--2-2-2--2--2-2-2-2--2-2-5--5--5-5-5-5--5-5-------------------|
C#|-0--0--0-0-0-0--0-0-0--0--0-0-0-0--0-0-5--5--5-5-5-5--5-5-5--5--5-5-5-0-3-2-|
G#|-0--0--0-0-0-0--0-0-x--x--x-x-x-x--x-x-3--3--3-3-3-3--3-3-5--5--5-5-5-0-3-2-|
C#|-0--0--0-0-0-0--0-0-3--3--3-3-3-3--3-3--------------------5--5--5-5-5-0-3-2-|

D#|----------------------------------------------------------------------------|
A#|-3--3--3-3-3-3--3-3-3--3--3-3-3-3--3-3--------------------------------------|
F#|-2--2--2-2-2-2--2-2-2--2--2-2-2-2--2-2-5--5--5-5-5-5--5-5-------------------|
C#|-0--0--0-0-0-0--0-0-0--0--0-0-0-0--0-0-5--5--5-5-5-5--5-5-5--5--5-5-5-5-5-5-|
G#|-0--0--0-0-0-0--0-0-x--x--x-x-x-x--x-x-3--3--3-3-3-3--3-3-5--5--5-5-5-5-5-5-|
C#|-0--0--0-0-0-0--0-0-3--3--3-3-3-3--3-3--------------------5--5--5-5-5-5-5-5-|

D#|-----------------------------------------|
A#|-----------------------------------------|
F#|-----------------------------------------|
C#|-8-8-8-8-8-8-8-8-10-10-10-10-10-0-3-2-0~-|
G#|-8-8-8-8-8-8-8-8-10-10-10-10-10-0-3-2-0~-|
C#|-8-8-8-8-8-8-8-8-10-10-10-10-10-0-3-2-0~-|

Play Riff 1 x6   "Trying to watch all of my sins bleed..."
Play Riff 2 x1   "How long, how long can you carry this note..."
Play Riff 3 x1   "Crawling through mud what's the difference..."

Riff 4
D#|---------------------------------------------------------------|
A#|---------------------------------------------------------------|
F#|---------------------------------------------------------------|
C#|------------------5----3--3-5-3------------------5----3--3-5-3-| x2
G#|--------9-------x-5--x-3--3-5-3--------9-------x-5--x-3--3-5-3-|
C#|-0-9-10----10-9-x-5--x-3--3-5-3-7-9-10----10-9-x-5--x-3--3-5-3-|
                             * * *                          * * *

D#|-------------------------------------------------------------------|
A#|-------------------------------------------------------------------|
F#|-------------------------------------------------------------------|
C#|-3-3-3-3-3-3-3-3-5-5-5-5-5-5-5-5-3-3-3-3-3-3-3-3-3-5-5-5-5-5-5-x-x-|
G#|-3-3-3-3-3-3-3-3-5-5-5-5-5-5-5-5-3-3-3-3-3-3-3-3-3-5-5-5-5-5-5-x-x-|
C#|-3-3-3-3-3-3-3-3-5-5-5-5-5-5-5-5-3-3-3-3-3-3-3-3-3-5-5-5-5-5-5-x-x-|


Lead (w/ wah)
D#|----------------------------------------13b15-|
A#|-------13---12b13r12-10--------13---15--------|
F#|----10----------------------10----------------|
C#|-12----------------------12-------------------| x2
G#|----------------------------------------------|
C#|----------------------------------------------|

D#|-13--13--13--13--10--10--10-----10-13--13--13--13--15--15--15b17--15b17-|
A#|-----------------------------13-----------------------------------------|
F#|------------------------------------------------------------------------|
C#|------------------------------------------------------------------------|
G#|------------------------------------------------------------------------|
C#|------------------------------------------------------------------------|

Play Riff 3 x1   "Crawling through mud what's the difference..."
                  
Riff 5   "The other side, where you come alone..."
D#|------------------------------------------------------------------------------------|
A#|------------------------------------------------------------------------------------|
F#|------------------------------------------------------------------------------------|
C#|-8-8-8-8-8-8-8-8-10-10-10-10-10-10-10-10-10-8-8-8-8-8-8-8-8-10-10-10-10-10-0-3-2-0~-|
G#|-8-8-8-8-8-8-8-8-10-10-10-10-10-10-10-10-10-8-8-8-8-8-8-8-8-10-10-10-10-10-0-3-2-0~-|
C#|-8-8-8-8-8-8-8-8-10-10-10-10-10-10-10-10-10-8-8-8-8-8-8-8-8-10-10-10-10-10-0-3-2-0~-|

Ending (clean)
D#|----------------------------------------------------------|
A#|----------------------------------------------------------|
F#|-------------------------------------------------------2~-|
C#|---------------------0--------------------------0------0~-|
G#|---0-5/8~------8--------------0-5/8~------8------------0~-|
C#|-0-----------9---9-5---5-3b-0-----------9---9-5---5-3b-0~-|

Enjoy!!
Добавлено: 01.11.2015
Другие материалы по этой песне:

Страница создана 01.11.2015
http://primanota.ru/red-sun-rising/otherside-chords.htm
Привет, Гость.
Предлагаем пройти революционный курс по гитаре.
Подарок от PrimaNota.Ru, забирай!