PrimaNota.ru - самый крупный в мире бесплатный архив песенных текстов, аккордов, табулатур и нот


Red Sparowes - Alone And Unaware The Landscape Was Transformed In Front Of Our Eyes - таба, видео

Регистрация Запомнить меня
Войти через:  Facebook Google Twitter Vk Yandex Mail.ru

Red Sparowes - Alone And Unaware The Landscape Was Transformed In Front Of Our Eyes - таба, видео

Печатать
Просмотров: 112
Уроки эстрадного вокала в Санкт-Петербурге
Авторы: Bryant Clifford Meyer, Dana Berkowitz, Josh Graham, Jeff Caxide, Greg Burns

"Alone and Unaware, The Landscape Was Transformed in Front of Our Eyes" Tab

Artist: Red Sparowes

http://www.redsparowes.com

Tuning: Dropped Db

Tabbed by: ANightToDismember - anighttodismember@gmail.com

Notes: This Tab includes most of the instruments played in the song.
Some notes are transposed because I used a Midi Sequencer to Tab this
(Tabit, visit http://www.Tabit.net), and I wanted to have some ringing
notes, so, if a note seems simply awkward to play, transpose it to
another string yourself ;)

I don't want to spam or anything but...

Check the complete Tabit Tab at http://www.tabit.net/tabs/list.php?f=3807


Copyright 2005, ANightToDismember. 

THIS WHOLE TAB IS FOR PRIVATE STUDY AND EDUCATIONAL PURPOSES ONLY.




=================================
=================================
=================================
=================================



FIRST INSTRUMENT TRACK: GUITAR



=================================
=================================
=================================
=================================




Distortion/Overdriven Guitar 1, Some Sustain.

(00:00)

Eb :-----------------------------------|----------------|10---------------|
Bb :13---------------------------------|----------------|-----------------|
Gb :-----------------------------------|----------------|-----------------|
Db :-----------------------------------|----------------|-----------------|
Ab :-----------------------------------|----------------|-----------------|
Db :-----------------------------------|----------------|-----------------|

                                                                        
Eb :----------------|11---------------|----------------|11--------------|
Bb :----------------|-----------------|----------------|----------------|
Gb :----------------|-----------------|----------------|----------------|
Db :----------------|-----------------|----------------|----------------|
Ab :----------------|-----------------|----------------|----------------|
Db :----------------|-----------------|----------------|----------------|

                    
Eb :----------------|
Bb :------13--------|
Gb :----------------|
Db :----------------|
Ab :----------------|
Db :----------------|

                                                                         
Eb :-----------------|----------------|10---------------|----------------|
Bb :13---------------|----------------|-----------------|----------------|
Gb :-----------------|----------------|-----------------|----------------|
Db :-----------------|----------------|-----------------|----------------|
Ab :-----------------|----------------|-----------------|----------------|
Db :-----------------|----------------|-----------------|----------------|

                                                                        
Eb :11---------------|----------------|6---------------|------8---------|
Bb :-----------------|----------------|----------------|----------------|
Gb :-----------------|----------------|----------------|----------------|
Db :-----------------|----------------|----------------|----------------|
Ab :-----------------|----------------|----------------|----------------|
Db :-----------------|----------------|----------------|----------------|

                                                                         
Eb :-*---------------|*---------------|10---------------|----------------|
Bb :13---------------|----------------|-----------------|----------------|
Gb :-----------------|----------------|-----------------|----------------|
Db :-----------------|----------------|-----------------|----------------|
Ab :-----------------|----------------|-----------------|----------------|
Db :-----------------|----------------|-----------------|----------------|

                                                                         
Eb :11---------------|----------------|6---------------|-----------------|
Bb :-----------------|----------------|----------------|------13---------|
Gb :-----------------|----------------|----------------|-----------------|
Db :-----------------|----------------|----------------|-----------------|
Ab :-----------------|----------------|----------------|-----------------|
Db :-----------------|----------------|----------------|-----------------|

                                                                         
Eb :-*---------------|*---------------|10---------------|----------------|
Bb :13---------------|----------------|-----------------|----------------|
Gb :-----------------|----------------|-----------------|----------------|
Db :-----------------|----------------|-----------------|----------------|
Ab :-----------------|----------------|-----------------|----------------|
Db :-----------------|----------------|-----------------|----------------|

                                                                         
Eb :11---------------|----------------|6---------------|-----------------|
Bb :-----------------|----------------|----------------|------13---------|
Gb :-----------------|----------------|----------------|-----------------|
Db :-----------------|----------------|----------------|-----------------|
Ab :-----------------|----------------|----------------|-----------------|
Db :-----------------|----------------|----------------|-----------------|




(00:49) Clean Guitar

Slide where needed. I Included most of the note slides in
another Guitar Track.

                                                       
Eb :--*-------------------|-----10------10---10---|------11------11---11---|
Bb :--8----8---8---8------|---8------8------------|---11-----11------------|
Gb :-----8---8------------|-8---------------------|12-------(12)-----------|
Db :(10)--------------(10)|10------(10)-----------|------------------------|
Ab :----------------------|-----------------------|------------------------|
Db :----------------------|-----------------------|------------------------|

                                                        
Eb :------13----13---13---|-15----------15---------15---|
Bb :---11----11-----------|------13--------13-----------|
Gb :13--------------------|-15--(15)-15-------(15)------|
Db :----------------------|(13)-------------------------|
Ab :----------------------|-----------------------------|
Db :----------------------|-----------------------------|

                                                           
Eb :-13-------13-------13----|-11---------11---------11----|
Bb :---------(11)-----(11)---|-----11----(11)-11----(11)---|
Gb :(12)-----(12)-----(12)---|(-8)-------------------------|
Db :-------------------------|--------13---------13--------|
Ab :-------------------------|-----------------------------|
Db :-------------------------|-----------------------------|

                                
Eb :11-10---------10-------10-8-|
Bb :-------------(11)-----------|
Gb :--------(12)------(12)------|    PLAY X 4
Db :----------------------------|
Ab :----------------------------|
Db :----------------------------|



(01:38) Clean Guitar/Slightly Overdriven/Some echo-Delay

                                                              
Eb :-----------------|---------------------|------------------|
Bb :-----8-----------|---------------------|------------------|
Gb :-----------------|-----12--------------|------------------|
Db :----10-----------|10------15-13-12-----|----13-------13---|
Ab :-----------------|---------------------|----15-------15---|
Db :-----------------|---------------------|------------------|

                                                                   
Eb :---------------------|------------------|----------------------|
Bb :---------------------|------------------|----------------------|
Gb :---------------------|------------------|------12--------------|
Db :13---13-15-13-12-----|13---17-----------|10-13----15-13-12-----|
Ab :15-------------------|15---15-----------|----------------------|
Db :---------------------|------------------|----------------------|

                                                                       
Eb :-------------------|-------------------------|---------------------|
Bb :-------------------|-------------------------|---------------------|
Gb :-------------------|-------------------------|---------------------|
Db :----13---13---15---|15-------17----17---18---|18---17--------------|
Ab :-------------------|-----15-(15)---15---15---|15------(15)---------|
Db :-------------------|-------------------------|---------------------|

                                                                     
Eb :------------------------|------------------|---------------------|
Bb :------------------------|------------------|---------------------|
Gb :--------12--------------|------------------|---------------------|
Db :10-(13)----15-13-12-----|----13-------13---|--10-13-15-13-12-----|
Ab :------------------------|----15-------15---|---------------------|
Db :------------------------|------------------|---------------------|

                                                                     
Eb :-----------------------|---------------------|-------------------|
Bb :-----------------------|---------------------|-------------------|
Gb :-----------------------|-----12--------------|-------------------|
Db :-13--10--17------------|10------15-13-12-----|----13---13---15---|
Ab :(15)----(15)-----------|---------------------|-------------------|
Db :-----------------------|---------------------|-------------------|

                             
Eb :-------------------------|
Bb :-------------------------|
Gb :-------------------------|
Db :15-------17----17---18---|
Ab :-----15-(15)---15---15---|
Db :-------------------------|

                                                                     
Eb :---------------------|------------------------|------------------|
Bb :---------------------|------------------------|------------------|
Gb :---------------------|--------12--------------|------------------|
Db :18---17--------------|10-(13)----15-13-12-----|----13-------13---|
Ab :15------(15)---------|------------------------|----15-------15---|
Db :---------------------|------------------------|------------------|

                                                                      
Eb :---------------------|----------------------|---------------------|
Bb :---------------------|----------------------|---------------------|
Gb :---------------------|----------------------|-----12--------------|
Db :--10-13-15-13-12-----|-13-----17------------|--10----15-13-12-----|
Ab :---------------------|(15)---(15)-----------|---------------------|
Db :---------------------|----------------------|---------------------|

                                                                       
Eb :-------------------|-------------------------|---------------------|
Bb :-------------------|-------------------------|---------------------|
Gb :-------------------|-------------------------|---------------------|
Db :----13---13---15---|15-------17----17---18---|18---17--------------|
Ab :-------------------|-----15-(15)---15---15---|15------(15)---------|
Db :-------------------|-------------------------|---------------------|

                                                                       
Eb :--------------------------|------------------|---------------------|
Bb :--------------------------|------------------|---------------------|
Gb :---------12---------------|------------------|---------------------|
Db :10--13-------15-13-12-----|----13-------13---|--10-13-15-13-12-----|
Ab :---(15)-(15)--------------|----15-------15---|---------------------|
Db :--------------------------|------------------|---------------------|

                                                                    
Eb :----------------------|---------------------|-------------------|
Bb :----------------------|---------------------|-------------------|
Gb :----------------------|-----12--------------|-------------------|
Db :-13-----17------------|--10----15-13-12-----|----13---13---15---|
Ab :(15)---(15)-----------|---------------------|-------------------|
Db :----------------------|---------------------|-------------------|

                             
Eb :-------------------------|
Bb :-------------------------|
Gb :-------------------------|
Db :15-------17----17---18---|
Ab :-----15-(15)---15---15---|
Db :-------------------------|



(02:28) Distortion Guitar


           pm pm                pm pm pm pm                             
Eb :----------------------|-----------------|------------------|
Bb :-------------13-------|-*---------------|------------------|
Gb :-------------12-------|-*---------------|---------15-------|
Db :13--10--x--x--x-------|12---x-x-x-x-x-x-|13---x-x-15-------|
Ab :10--10--x--x-13-------|12---x-x-x-x-x-x-|13---x-x-13-------|
Db :10--10-10-10----------|12---x-x-x-x-x-x-|13---x-x----------|

                                                           
Eb :----------------|------------------|-----8---*--8-*--8-|
Bb :----------------|---------13-------|*----x---*--x-*--x-|
Gb :*---------------|----------x-------|-----8---*--8-*--8-|
Db :8-x-x-x-x-x-x-x-|10---x-x-10-------|5-x-10---x-10-x-10-|
Ab :8-x-x-x-x-x-x-x-|10---x-x-10-------|5-x------x----x----|
Db :8-x-x-x-x-x-x-x-|10---x-x-10-------|5-x------x----x----|


                                          (02:41) Bass Goes Solo                               
Eb :-*--------8-------|*---------------|*---------------|----------------|
Bb :-*--------x-------|*---------------|*---------------|----------------|
Gb :-*--------8-------|7-7-7-7-7-7-7-7-|*---------------|----------------|
Db :13-x-x-x-10-x-x-x-|7---------------|*---------------|----------------|
Ab :13-x-x-x----x-x-x-|5---------------|*---------------|----------------|
Db :13-x-x-x----x-x-x-|0---------------|*---------------|----------------|

                                                                       
Eb :----------------|----------------|----------------|----------------|
Bb :----------------|----------------|----------------|----------------|
Gb :----------------|----------------|----------------|----------------|
Db :----------------|----------------|----------------|----------------|
Ab :----------------|----------------|----------------|----------------|
Db :----------------|----------------|----------------|----------------|

                                                          
Eb :----------------|----------------|
Bb :----------------|----------------|
Gb :----------------|----------------|
Db :----------------|----------------|
Ab :----------------|----------------|
Db :----------------|----------------|



(02:53) Overdriven Guitar

Eb :----------11--------|
Bb :----------13--------|
Gb :-----------x--------|
Db :10---10---13---10---|
Ab :10---10--------10---|
Db :10---10--------10---|

                                                                  
Eb :--------------------|--------------------|--------------------|
Bb :--------------------|--------------------|--------------------|
Gb :--------------------|--------------------|--------------------|
Db :10---10---10---10---|10---10---10---10---|10---10---10---10---|
Ab :10---10---10---10---|10---10---10---10---|10---10---10---10---|
Db :10---10---10---10---|10---10---10---10---|10---10---10---10---|

                                                                  
Eb :----------11--------|--------------------|--------------------|
Bb :----------13--------|--------------------|--------------------|
Gb :-----------x--------|--------------------|--------------------|
Db :10---10---13---10---|10---10---10---10---|10---10---10---10---|
Ab :10---10--------10---|10---10---10---10---|10---10---10---10---|
Db :10---10--------10---|10---10---10---10---|10---10---10---10---|

                          
                         (03:03) Clean Guitar/Slightly Overdriven               
Eb :--------------------|--------------------|--------------------|
Bb :--------------------|--------------------|--------------------|
Gb :--------------------|20---20---20---20---|20---20---20---20---|
Db :10---10---10---10---|-*------------------|--------------------|
Ab :10---10---10---10---|-*------------------|--------------------|
Db :10---10---10---10---|-*------------------|--------------------|

                                                                 
Eb :--------------------|--------------------|-------------------|
Bb :--------------------|--------------------|-------------------|
Gb :20---20---20---20---|20---20---20---20---|20---19------------|
Db :--------------------|--------------------|----------17-------|
Ab :--------------------|--------------------|-------------------|
Db :--------------------|--------------------|-------------------|


    (03:08) Guitar Rests and...                                                  
Eb :----------------|----------------|----------------|
Bb :----------------|----------------|----------------|
Gb :----------------|----------------|----------------|
Db :----------------|----------------|----------------|
Ab :----------------|----------------|----------------|
Db :----------------|----------------|----------------|

    (03:12) ...follows the same pattern                                                                  
Eb :--------------------|--------------------|--------------------|
Bb :--------------------|--------------------|--------------------|
Gb :20---20---20---20---|20---20---20---20---|20---20---20---20---|
Db :-*------------------|--------------------|--------------------|
Ab :-*------------------|--------------------|--------------------|
Db :-*------------------|--------------------|--------------------|

                                                             
Eb :--------------------|-------------------|----------------|
Bb :--------------------|-------------------|----------------|
Gb :20---20---20---20---|20---19------------|----------------|
Db :--------------------|----------17-------|----------------|
Ab :--------------------|-------------------|----------------|
Db :--------------------|-------------------|----------------|



    Rest 3 bars
Eb :----------------|----------------|
Bb :----------------|----------------|
Gb :----------------|----------------|
Db :----------------|----------------|
Ab :----------------|----------------|
Db :----------------|----------------|

    Starts again...                                                              
Eb :--------------------|--------------------|--------------------|
Bb :--------------------|--------------------|--------------------|
Gb :20---20---20---20---|20---20---20---20---|20---20---20---20---|
Db :--------------------|--------------------|--------------------|
Ab :--------------------|--------------------|--------------------|
Db :--------------------|--------------------|--------------------|

                                                             
Eb :--------------------|-------------------|----------------|
Bb :--------------------|-------------------|----------------|
Gb :20---20---20---20---|20---19------------|----------------|
Db :--------------------|----------17-------|----------------|
Ab :--------------------|-------------------|----------------|
Db :--------------------|-------------------|----------------|

                                                          
Eb :----------------|----------------|--------------------|
Bb :----------------|----------------|--------------------|
Gb :----------------|----------------|20---20---20---20---|
Db :----------------|----------------|-*------------------|
Ab :----------------|----------------|-*------------------|
Db :----------------|----------------|-*------------------|

    Plays for the last time...                                                              
Eb :--------------------|--------------------|--------------------|
Bb :--------------------|--------------------|--------------------|
Gb :20---20---20---20---|20---20---20---20---|20---20---20---20---|
Db :--------------------|--------------------|--------------------|
Ab :--------------------|--------------------|--------------------|
Db :--------------------|--------------------|--------------------|

                                                                          
Eb :-------------------|----------------|----------------|----------------|
Bb :-------------------|----------------|----------------|----------------|
Gb :20---19------------|----------------|----------------|----------------|
Db :----------17-------|----------------|----------------|----------------|
Ab :-------------------|----------------|----------------|----------------|
Db :-------------------|----------------|----------------|----------------|





    (03:36) Still sightly Overdriven/Light Distortion

Eb :--------------------|--------------------|--------------------|
Bb :13---13---13---13---|13---13---13---13---|15---15---15---15---|
Gb :--------------------|--------------------|--------------------|
Db :--------------------|--------------------|--------------------|
Ab :--------------------|--------------------|--------------------|
Db :--------------------|--------------------|--------------------|

                                                                  
Eb :--------------------|--------------------|--------------------|
Bb :15---15---15---15---|18---18---18---18---|18---18---18---18---|
Gb :--------------------|17----*---17--------|17---17---17---17---|
Db :--------------------|--------------------|--------------------|
Ab :--------------------|--------------------|--------------------|
Db :--------------------|--------------------|--------------------|

                                                                  
Eb :--------------------|--------------------|--------------------|
Bb :16---16---16---16---|16---16---16---16---|13---13---13---13---|
Gb :17---17---17---17---|17---17---17---17---|--------------------|
Db :--------------------|--------------------|--------------------|
Ab :--------------------|--------------------|--------------------|
Db :--------------------|--------------------|--------------------|

                                                                  
Eb :--------------------|--------------------|--------------------|
Bb :13---13---13---13---|15---15---15---15---|15---15---15---15---|
Gb :--------------------|--------------------|--------------------|
Db :--------------------|--------------------|--------------------|
Ab :--------------------|--------------------|--------------------|
Db :--------------------|--------------------|--------------------|

                                                                  
Eb :--------------------|--------------------|--------------------|
Bb :18---18---18---18---|18---18---18---18---|16---16---16---16---|
Gb :17----*---17--------|17---17---17---17---|17---17---17---17---|
Db :--------------------|--------------------|--------------------|
Ab :--------------------|--------------------|--------------------|
Db :--------------------|--------------------|--------------------|

                                                                  
Eb :--------------------|--------------------|--------------------|
Bb :16---16---16---16---|13---13---13---13---|13---13---13---13---|
Gb :17---17---17---17---|--------------------|--------------------|
Db :--------------------|--------------------|--------------------|
Ab :--------------------|--------------------|--------------------|
Db :--------------------|--------------------|--------------------|

                                                                  
Eb :--------------------|--------------------|--------------------|
Bb :15---15---15---15---|15---15---15---15---|18---18---18---18---|
Gb :--------------------|--------------------|17----*---17--------|
Db :--------------------|--------------------|--------------------|
Ab :--------------------|--------------------|--------------------|
Db :--------------------|--------------------|--------------------|

                                                                  
Eb :--------------------|--------------------|--------------------|
Bb :18---18---18---18---|16---16---16---16---|16---16---16---16---|
Gb :17---17---17---17---|17---17---17---17---|17---17---17---17---|
Db :--------------------|--------------------|--------------------|
Ab :--------------------|--------------------|--------------------|
Db :--------------------|--------------------|--------------------|

                                                                  
Eb :--------------------|--------------------|--------------------|
Bb :13---13---13---13---|13---13---13---13---|15---15---15---15---|
Gb :--------------------|--------------------|--------------------|
Db :--------------------|--------------------|--------------------|
Ab :--------------------|--------------------|--------------------|
Db :--------------------|--------------------|--------------------|

                                                                  
Eb :--------------------|--------------------|--------------------|
Bb :15---15---15---15---|18---18---18---18---|18---18---18---18---|
Gb :--------------------|17----*---17--------|17---17---17---17---|
Db :--------------------|--------------------|--------------------|
Ab :--------------------|--------------------|--------------------|
Db :--------------------|--------------------|--------------------|

                                              


                    
Eb :--------------------|--------------------
Bb :16---16---16---16---|16---16---16---16---
Gb :17---17---17---17---|17---17---17---17---
Db :--------------------|--------------------
Ab :--------------------|--------------------
Db :--------------------|--------------------



(04:06) Clean Guitar

Eb :|-*------------------|                    
Bb :|-*------------------|
Gb :|12---12---13---13---|
Db :|-*------------------|
Ab :|-*------------------|
Db :|-*------------------|
                                        
Eb :--------------------|------------------|----------------|
Bb :--------------------|------------------|----------------|
Gb :10---10---12---12---|8---8---10---10---|7---7---5---5---|
Db :--------------------|------------------|----------------|
Ab :--------------------|------------------|----------------|
Db :--------------------|------------------|----------------|

                                                                
Eb :--------------------|--------------------|------------------|
Bb :--------------------|--------------------|------------------|
Gb :12---12---13---13---|10---10---12---12---|8---8---10---10---|
Db :--------------------|--------------------|------------------|
Ab :--------------------|--------------------|------------------|
Db :--------------------|--------------------|------------------|

                                                              
Eb :----------------|--------------------|--------------------|
Bb :----------------|--------------------|--------------------|
Gb :7---7---5---5---|12---12---13---13---|10---10---12---12---|
Db :----------------|--------------------|--------------------|
Ab :----------------|--------------------|--------------------|
Db :----------------|--------------------|--------------------|

                                                            
Eb :------------------|----------------|--------------------|
Bb :------------------|----------------|--------------------|
Gb :8---8---10---10---|7---7---5---5---|12---12---13---13---|
Db :------------------|----------------|--------------------|
Ab :------------------|----------------|--------------------|
Db :------------------|----------------|--------------------|

                                                            
Eb :--------------------|------------------|----------------|
Bb :--------------------|------------------|----------------|
Gb :10---10---12---12---|8---8---10---10---|7---7---5---5---|
Db :--------------------|------------------|----------------|
Ab :--------------------|------------------|----------------|
Db :--------------------|------------------|----------------|

    


   (04:25) Distortion Guitar,
                                                                    
Eb :11------11------11------11---|11---11---11---11---|11---11---11---11---|
Bb :-----------------------------|--------------------|--------------------|
Gb :----------------12-----------|--------------------|--------------------|
Db :12------10-10----x-----------|--------------------|--------------------|
Ab :10------10------10-----------|--------------------|--------------------|
Db :10------10------10-----------|--------------------|--------------------|

                                                                  
Eb :11---11---11---11---|13---13---13---13---|13---13---13---13---|
Bb :--------------------|--------------------|--------------------|
Gb :--------------------|--------------------|--------------------|
Db :--------------------|--------------------|--------------------|
Ab :--------------------|--------------------|--------------------|
Db :--------------------|--------------------|--------------------|

                                             
Eb :11---11---11---11---|11---11---11---11---|
Bb :--------------------|--------------------|
Gb :--------------------|--------------------|
Db :--------------------|--------------------|
Ab :--------------------|--------------------|
Db :--------------------|--------------------|

                                                                           
Eb :11------11------11------11---|11---11---11---11---|11---11---11---11---|
Bb :-----------------------------|--------------------|--------------------|
Gb :----------------12-----------|--------------------|--------------------|
Db :12------10-10----x-----------|--------------------|--------------------|
Ab :10------10------10-----------|--------------------|--------------------|
Db :10------10------10-----------|--------------------|--------------------|

                                                                  
Eb :11---11---11---11---|13---13---13---13---|13---13---13---13---|
Bb :--------------------|--------------------|--------------------|
Gb :--------------------|--------------------|--------------------|
Db :--------------------|--------------------|--------------------|
Ab :--------------------|--------------------|--------------------|
Db :--------------------|--------------------|--------------------|

                                                                           
Eb :11---11---11---11---|11---11---11---11---|11------11------11------11---|
Bb :--------------------|--------------------|-----------------------------|
Gb :--------------------|--------------------|----------------12-----------|
Db :--------------------|--------------------|12------10-10----x-----------|
Ab :--------------------|--------------------|10------10------10-----------|
Db :--------------------|--------------------|10------10------10-----------|

                                                                  
Eb :11---11---11---11---|11---11---11---11---|11---11---11---11---|
Bb :--------------------|--------------------|--------------------|
Gb :--------------------|--------------------|--------------------|
Db :--------------------|--------------------|--------------------|
Ab :--------------------|--------------------|--------------------|
Db :--------------------|--------------------|--------------------|

                                                                  
Eb :13---13---13---13---|13---13---13---13---|11---11---11---11---|
Bb :--------------------|--------------------|--------------------|
Gb :--------------------|--------------------|--------------------|
Db :--------------------|--------------------|--------------------|
Ab :--------------------|--------------------|--------------------|
Db :--------------------|--------------------|--------------------|

                                                                           
Eb :11---11---11---11---|11------11------11------11---|11---11---11---11---|
Bb :--------------------|-----------------------------|--------------------|
Gb :--------------------|----------------12-----------|--------------------|
Db :--------------------|12------10-10----x-----------|--------------------|
Ab :--------------------|10------10------10-----------|--------------------|
Db :--------------------|10------10------10-----------|--------------------|

                                                                  
Eb :11---11---11---11---|11---11---11---11---|13---13---13---13---|
Bb :--------------------|--------------------|--------------------|
Gb :--------------------|--------------------|--------------------|
Db :--------------------|--------------------|--------------------|
Ab :--------------------|--------------------|--------------------|
Db :--------------------|--------------------|--------------------|

                                                                  
Eb :13---13---13---13---|11---11---11---11---|11---11---11---11---|
Bb :--------------------|--------------------|--------------------|
Gb :--------------------|--------------------|--------------------|
Db :--------------------|--------------------|--------------------|
Ab :--------------------|--------------------|--------------------|
Db :--------------------|--------------------|--------------------|



    (04:56) Set of Clean Guitars, almost finished
                                                                       
Eb :*---------------|----------------|------------------|------------------|
Bb :8---8---8---8---|8---9---9---9---|-*----------------|------------------|
Gb :*---------------|----------------|10---10---8---8---|8---8----*--------|
Db :*---------------|----------------|------------------|--------10---10---|
Ab :*---------------|----------------|------------------|------------------|
Db :*---------------|----------------|------------------|------------------|

                                                                           
Eb :----------------|----------------|------------------|------------------|
Bb :8---8---8---8---|8---9---9---9---|-*----------------|------------------|
Gb :----------------|----------------|10---10---8---8---|8---8----*--------|
Db :*---------------|----------------|------------------|--------10---10---|
Ab :----------------|----------------|------------------|------------------|
Db :----------------|----------------|------------------|------------------|

                                                                           
Eb :----------------|----------------|------------------|------------------|
Bb :8---8---8---8---|8---9---9---9---|-*----------------|------------------|
Gb :----------------|----------------|10---10---8---8---|8---8----*--------|
Db :*---------------|----------------|------------------|--------10---10---|
Ab :----------------|----------------|------------------|------------------|
Db :----------------|----------------|------------------|------------------|

                                                                           
Eb :----------------|----------------|------------------|------------------|
Bb :8---8---8---8---|8---9---9---9---|-*----------------|------------------|
Gb :----------------|----------------|10---10---8---8---|8---8----*--------|
Db :*---------------|----------------|------------------|--------10---10---|
Ab :----------------|----------------|------------------|------------------|
Db :----------------|----------------|------------------|------------------|

                                                                
Eb :--------------------|--------------------|------------------|
Bb :--------------------|-----11----*--------|------------------|
Gb :12---12---12---13---|12----*---12---10---|10---10---8---8---|
Db :-*------------------|--------------------|------------------|
Ab :--------------------|--------------------|------------------|
Db :--------------------|--------------------|------------------|

                      
Eb :------------------|
Bb :------------------|
Gb :8---8----*--------|
Db :--------10---10---|
Ab :------------------|
Db :------------------|

                                                                
Eb :--------------------|--------------------|------------------|
Bb :--------------------|-----11----*--------|------------------|
Gb :12---12---12---13---|12----*---12---10---|10---10---8---8---|
Db :-*------------------|--------------------|------------------|
Ab :--------------------|--------------------|------------------|
Db :--------------------|--------------------|------------------|

                                                                
Eb :------------------|--------------------|--------------------|
Bb :------------------|--------------------|-----11----*--------|
Gb :8---8----*--------|12---12---12---13---|12----*---12---10---|
Db :--------10---10---|-*------------------|--------------------|
Ab :------------------|--------------------|--------------------|
Db :------------------|--------------------|--------------------|

                                                              
Eb :------------------|------------------|--------------------|
Bb :------------------|------------------|--------------------|
Gb :10---10---8---8---|8---8----*--------|12---12---12---13---|
Db :------------------|--------10---10---|-*------------------|
Ab :------------------|------------------|--------------------|
Db :------------------|------------------|--------------------|

                                                              
Eb :--------------------|------------------|------------------|
Bb :-----11----*--------|------------------|------------------|
Gb :12----*---12---10---|10---10---8---8---|8---8----*--------|
Db :--------------------|------------------|--------10---10---|
Ab :--------------------|------------------|------------------|
Db :--------------------|------------------|------------------|

                                                                           
Eb :----------------|----------------|------------------|------------------|
Bb :8---8---8---8---|8---9---9---9---|-*----------------|------------------|
Gb :----------------|----------------|10---10---8---8---|8---8----*--------|
Db :*---------------|----------------|------------------|--------10---10---|
Ab :*---------------|----------------|------------------|------------------|
Db :----------------|----------------|------------------|------------------|

                                                                           
Eb :----------------|----------------|------------------|------------------|
Bb :8---8---8---8---|8---9---9---9---|-*----------------|------------------|
Gb :----------------|----------------|10---10---8---8---|8---8----*--------|
Db :*---------------|----------------|------------------|--------10---10---|
Ab :----------------|----------------|------------------|------------------|
Db :----------------|----------------|------------------|------------------|

                                                                           
Eb :----------------|----------------|------------------|------------------|
Bb :8---8---8---8---|8---9---9---9---|-*----------------|------------------|
Gb :----------------|----------------|10---10---8---8---|8---8----*--------|
Db :*---------------|----------------|------------------|--------10---10---|
Ab :----------------|----------------|------------------|------------------|
Db :----------------|----------------|------------------|------------------|

                                                                           
Eb :----------------|----------------|------------------|------------------|
Bb :8---8---8---8---|8---9---9---9---|-*----------------|------------------|
Gb :----------------|----------------|10---10---8---8---|8---8----*--------|
Db :*---------------|----------------|------------------|--------10---10---|
Ab :----------------|----------------|------------------|------------------|
Db :----------------|----------------|------------------|------------------|

                                                                
Eb :--------------------|--------------------|------------------|
Bb :--------------------|-----11----*--------|------------------|
Gb :12---12---12---13---|12----*---12---10---|10---10---8---8---|
Db :-*------------------|--------------------|------------------|
Ab :--------------------|--------------------|------------------|
Db :--------------------|--------------------|------------------|

                                                                
Eb :------------------|--------------------|--------------------|
Bb :------------------|--------------------|-----11----*--------|
Gb :8---8----*--------|12---12---12---13---|12----*---12---10---|
Db :--------10---10---|-*------------------|--------------------|
Ab :------------------|--------------------|--------------------|
Db :------------------|--------------------|--------------------|

                                                              
Eb :------------------|------------------|--------------------|
Bb :------------------|------------------|--------------------|
Gb :10---10---8---8---|8---8----*--------|12---12---12---13---|
Db :------------------|--------10---10---|-*------------------|
Ab :------------------|------------------|--------------------|
Db :------------------|------------------|--------------------|

                                                              
Eb :--------------------|------------------|------------------|
Bb :-----11----*--------|------------------|------------------|
Gb :12----*---12---10---|10---10---8---8---|8---8----*--------|
Db :--------------------|------------------|--------10---10---|
Ab :--------------------|------------------|------------------|
Db :--------------------|------------------|------------------|

                                                                
Eb :--------------------|--------------------|------------------|
Bb :--------------------|-----11----*--------|------------------|
Gb :12---12---12---13---|12----*---12---10---|10---10---8---8---|
Db :-*------------------|--------------------|------------------|
Ab :--------------------|--------------------|------------------|
Db :--------------------|--------------------|------------------|


    slowly Fades Out                      
Eb :------------------|
Bb :------------------|
Gb :8---8----*--------|
Db :--------10---10---|
Ab :------------------|
Db :------------------|



    (06:01) Acoustic Guitar (Slowly Fades In)
                                                         
Eb :-13-----13-----13-----13----|-13-----13-----13-----13----|
Bb :-13-----13-----13-----13----|-13-----11-----11-----11----|
Gb :-10-----10-----10-----10----|-10-----10-----10-----10----|
Db :(10)---(10)---(10)---(10)---|(10)---(13)---(13)---(13)---|
Ab :----------------------------|----------------------------|
Db :----------------------------|----------------------------|

                                                                          
Eb :11---11---11---11---|11----x----x----x---|-13-----13-----13-----13----|
Bb :-x----x----x----x---|-x---13---13---13---|--x------x------x------x----|
Gb :10---10---10---10---|10---10---10---10---|-10-----10-----10-----10----|
Db :13---13---13---13---|13---10---10---10---|(10)---(10)---(10)---(10)---|
Ab :--------------------|--------------------|----------------------------|
Db :--------------------|--------------------|----------------------------|

                                                                          
Eb :-13----(11)---(11)---(11)---|11---11---11---11---|11----x----x----x---|
Bb :--x-----13-----13-----13----|-x----x----x----x---|-x---13---13---13---|
Gb :-10-----10-----10-----10----|10---10---10---10---|10---10---10---10---|
Db :(10)-----x------x------x----|13---13---13---13---|13---10---10---10---|
Ab :----------------------------|--------------------|--------------------|
Db :----------------------------|--------------------|--------------------|

                                                             
Eb :-13-----13-----13-----13----|-13-----13-----13-----13----|
Bb :-13-----13-----13-----13----|-13-----11-----11-----11----|
Gb :-10-----10-----10-----10----|-10-----10-----10-----10----|
Db :(10)---(10)---(10)---(10)---|(10)---(13)---(13)---(13)---|
Ab :----------------------------|----------------------------|
Db :----------------------------|----------------------------|

                                                                          
Eb :11---11---11---11---|11----x----x----x---|-13-----13-----13-----13----|
Bb :-x----x----x----x---|-x---13---13---13---|--x------x------x------x----|
Gb :10---10---10---10---|10---10---10---10---|-10-----10-----10-----10----|
Db :13---13---13---13---|13---10---10---10---|(10)---(10)---(10)---(10)---|
Ab :--------------------|--------------------|----------------------------|
Db :--------------------|--------------------|----------------------------|

                                                                          
Eb :-13----(11)---(11)---(11)---|11---11---11---11---|11----x----x----x---|
Bb :--x-----13-----13-----13----|-x----x----x----x---|-x---13---13---13---|
Gb :-10-----10-----10-----10----|10---10---10---10---|10---10---10---10---|
Db :(10)-----x------x------x----|13---13---13---13---|13---10---10---10---|
Ab :----------------------------|--------------------|--------------------|
Db :----------------------------|--------------------|--------------------|

                                                             
Eb :-13-----13-----13-----13----|-13-----13-----13-----13----|
Bb :-13-----13-----13-----13----|-13-----11-----11-----11----|
Gb :-10-----10-----10-----10----|-10-----10-----10-----10----|
Db :(10)---(10)---(10)---(10)---|(10)---(13)---(13)---(13)---|
Ab :----------------------------|----------------------------|
Db :----------------------------|----------------------------|

                                                                          
Eb :11---11---11---11---|11----x----x----x---|-13-----13-----13-----13----|
Bb :-x----x----x----x---|-x---13---13---13---|--x------x------x------x----|
Gb :10---10---10---10---|10---10---10---10---|-10-----10-----10-----10----|
Db :13---13---13---13---|13---10---10---10---|(10)---(10)---(10)---(10)---|
Ab :--------------------|--------------------|----------------------------|
Db :--------------------|--------------------|----------------------------|

                                                     
Eb :-13----(11)---(11)---(11)---|11---11---11---11---|
Bb :--x-----13-----13-----13----|-x----x----x----x---|
Gb :-10-----10-----10-----10----|10---10---10---10---|
Db :(10)-----x------x------x----|13---13---13---13---|
Ab :----------------------------|--------------------|
Db :----------------------------|--------------------|



(06:25) Acoustic Guitar Fades OUt, Birds sounds wander through the song 
and the outro melody slowly appears
                        

The Outro is played with clean Guitar, some nice echo-delay FX

                                      	  (06:30) Outro
Eb :11--x--x--x---*-----|----------------|--------------------|
Bb :-x-13-13-13---*-----|----------------|--------------------|
Gb :10-10-10-10---*-----|----------------|--------------------|
Db :13-10-10-10---*-----|---5------------|10---10---10---10---|
Ab :--------------*-----|----------------|--------------------|
Db :--------------*-----|----------------|--------------------|

                                                           
Eb :--------------------|-----------------|----------------|
Bb :--------------------|-----------------|----------------|
Gb :--------------------|-----------------|----------------|
Db :10---10---10---10---|10---8-------8---|----8-------8---|
Ab :--------------------|-----------------|----------------|
Db :--------------------|-----------------|----------------|

                                                            
Eb :------------------|------------------|------------------|
Bb :------------------|------------------|------------------|
Gb :------------------|------------------|------------------|
Db :-------13-------13|-------10---12----|---12-------12----|
Ab :------------------|------------------|------------------|
Db :------------------|------------------|------------------|

                                                               
Eb :------------------|-------------------|--------------------|
Bb :------------------|-------------------|--------------------|
Gb :------------------|-------------------|--------------------|
Db :---12------8---10-|--10---10---10---8-|--12---12---12---12-|
Ab :------------------|-------------------|--------------------|
Db :------------------|-------------------|--------------------|

                                                                  
Eb :--------------------|--------------------|--------------------|
Bb :--------------------|--------------------|--------------------|
Gb :--------------------|--------------------|--------------------|
Db :--12---12---12---12-|--10---13---13---13-|--13---13---13---12-|
Ab :--------------------|--------------------|--------------------|
Db :--------------------|--------------------|--------------------|

                                                            
Eb :----------------|--------------------|------------------|
Bb :----------------|--------------------|------------------|
Gb :----------------|--------------------|------------------|
Db :--8---8---8---8-|--10---10---10---10-|--10---10---8---5-|
Ab :----------------|--------------------|------------------|
Db :----------------|--------------------|------------------|

                                                                       
Eb :----------------|----------------|----------------|----------------|
Bb :----------------|----------------|----------------|----------------|
Gb :----------------|----------------|----------------|----------------|
Db :--5---5---5---5-|--5---1---1---1-|--1---1---1---1-|--3---0---0---0-|
Ab :----------------|----------------|----------------|----------------|
Db :----------------|----------------|----------------|----------------|

                                                                       
Eb :----------------|----------------|----------------|----------------|
Bb :----------------|----------------|----------------|----------------|
Gb :----------------|----------------|----------------|----------------|
Db :--0---0---0---1-|----------------|----------------|----------------|
Ab :----------------|--3---3---3---3-|--3---3---3---3-|--3---3---3---3-|
Db :----------------|----------------|----------------|----------------|

                                                                 
Eb :--------------------|--------------------|-------------------|
Bb :--------------------|--------------------|-------------------|
Gb :--------------------|--------------------|-------------------|
Db :--10---10---10---10-|--10---10---10---10-|--8---12---12---12-|
Ab :---3----3----3----3-|--------------------|-------------------|
Db :--------------------|--------------------|-------------------|

                                                                
Eb :--------------------|--------------------|------------------|
Bb :--------------------|--------------------|------------------|
Gb :--------------------|--------------------|------------------|
Db :--12---12---10---13-|--13---13---13---13-|--13---12---8---8-|
Ab :--------------------|--------------------|------------------|
Db :--------------------|--------------------|------------------|

                                                            
Eb :----------------|-------------------|-------------------|
Bb :----------------|-------------------|-------------------|
Gb :----------------|-------------------|-------------------|
Db :--8---8---8---8-|--8---10---10---10-|--10---10---10---8-|
Ab :----------------|-------------------|-------------------|
Db :----------------|-------------------|-------------------|

                                                                       
Eb :----------------|----------------|----------------|----------------|
Bb :----------------|----------------|----------------|----------------|
Gb :----------------|----------------|----------------|----------------|
Db :--5---5---5---5-|--5---5---1---1-|--1---1---1---1-|--1---3---0---0-|
Ab :----------------|----------------|----------------|----------------|
Db :----------------|----------------|----------------|----------------|

                                                                       
Eb :----------------|----------------|----------------|----------------|
Bb :----------------|----------------|----------------|----------------|
Gb :----------------|----------------|----------------|----------------|
Db :--0---0---0---0-|--1-------------|----------------|----------------|
Ab :----------------|------3---3---3-|--3---3---3---3-|--3---3---3---3-|
Db :----------------|----------------|----------------|----------------|

                                                                
Eb :-------------------|--------------------|-------------------|
Bb :-------------------|--------------------|-------------------|
Gb :-------------------|--------------------|-------------------|
Db :------10---10---10-|--10---10---10---10-|--10---8---12---12-|
Ab :--3----3----3----3-|---3----------------|-------------------|
Db :-------------------|--------------------|-------------------|

                                                                 
Eb :--------------------|--------------------|-------------------|
Bb :--------------------|--------------------|-------------------|
Gb :--------------------|--------------------|-------------------|
Db :--12---12---12---10-|--13---13---13---13-|--13---13---12---8-|
Ab :--------------------|--------------------|-------------------|
Db :--------------------|--------------------|-------------------|

                                                            
Eb :----------------|------------------|--------------------|
Bb :----------------|------------------|--------------------|
Gb :----------------|------------------|--------------------|
Db :--8---8---8---8-|--8---8---10---10-|--10---10---10---10-|
Ab :----------------|------------------|--------------------|
Db :----------------|------------------|--------------------|

                                                                       
Eb :----------------|----------------|----------------|----------------|
Bb :----------------|----------------|----------------|----------------|
Gb :----------------|----------------|----------------|----------------|
Db :--8---5---5---5-|--5---5---5---1-|--1---1---1---1-|--1---1---3---0-|
Ab :----------------|----------------|----------------|----------------|
Db :----------------|----------------|----------------|----------------|

                                                                       
Eb :----------------|----------------|----------------|----------------|
Bb :----------------|----------------|----------------|----------------|
Gb :----------------|----------------|----------------|----------------|
Db :--0---0---0---0-|--0---1---------|----------------|----------------|
Ab :----------------|----------3---3-|--3---3---3---3-|--3---3---3---3-|
Db :----------------|----------------|----------------|----------------|

                    The End of first Track, Thank You.              
Eb :----------------|*---------------|----------------|
Bb :----------------|*---------------|----------------|
Gb :----------------|*---------------|----------------|
Db :----------------|*---------------|----------------|
Ab :--3---3---3---3-|*---------------|----------------|
Db :----------------|*---------------|----------------|






=================================
=================================
=================================
=================================


SECOND INSTRUMENT TRACK: GUITAR



=================================
=================================
=================================
=================================






    (00:00) Distortion Guitar with Sustain FX

Eb :--------------------------------|----------------|----------------|
Bb :1-------------------------------|----------------|3---------------|
Gb :--------------------------------|----------------|----------------|
Db :--------------------------------|----------------|----------------|
Ab :--------------------------------|----------------|----------------|
Db :--------------------------------|----------------|----------------|

                                                                       
Eb :----------------|----------------|----------------|----------------|
Bb :----------------|4---------------|------3---------|----------------|
Gb :----------------|----------------|----------------|3---------------|
Db :----------------|----------------|----------------|----------------|
Ab :----------------|----------------|----------------|----------------|
Db :----------------|----------------|----------------|----------------|

                    
Eb :----------------|
Bb :------4---------|
Gb :----------------|
Db :----------------|
Ab :----------------|
Db :----------------|

                                                                       
Eb :----------------|----------------|----------------|----------------|
Bb :1---------------|----------------|3---------------|----------------|
Gb :*---------------|----------------|----------------|----------------|
Db :----------------|----------------|----------------|----------------|
Ab :----------------|----------------|----------------|----------------|
Db :----------------|----------------|----------------|----------------|

                                                                       
Eb :----------------|----------------|----------------|----------------|
Bb :4---------------|------3---------|----------------|------4---------|
Gb :----------------|----------------|3---------------|----------------|
Db :----------------|----------------|----------------|----------------|
Ab :----------------|----------------|----------------|----------------|
Db :----------------|----------------|----------------|----------------|

                                                                       
Eb :----------------|----------------|----------------|----------------|
Bb :1---------------|----------------|3---------------|----------------|
Gb :*---------------|----------------|----------------|----------------|
Db :----------------|----------------|----------------|----------------|
Ab :----------------|----------------|----------------|----------------|
Db :----------------|----------------|----------------|----------------|

                                                                       
Eb :----------------|----------------|----------------|----------------|
Bb :4---------------|------3---------|----------------|------4---------|
Gb :----------------|----------------|3---------------|----------------|
Db :----------------|----------------|----------------|----------------|
Ab :----------------|----------------|----------------|----------------|
Db :----------------|----------------|----------------|----------------|

                                                                       
Eb :----------------|----------------|----------------|----------------|
Bb :1---------------|----------------|3---------------|----------------|
Gb :*---------------|----------------|----------------|----------------|
Db :----------------|----------------|----------------|----------------|
Ab :----------------|----------------|----------------|----------------|
Db :----------------|----------------|----------------|----------------|

                                                                       
Eb :----------------|----------------|----------------|----------------|
Bb :4---------------|------3---------|----------------|------4---------|
Gb :----------------|----------------|3---------------|----------------|
Db :----------------|----------------|----------------|----------------|
Ab :----------------|----------------|----------------|----------------|
Db :----------------|----------------|----------------|----------------|

     

(00:49) Clean Guitar, following bassline an octave higher.
                                                             
Eb :-*------------------|--------------------|--------------------|
Bb :-*------------------|--------------------|--------------------|
Gb :-*------------------|--------------------|--------------------|
Db :10---10---10---10---|12---12---12---12---|13---13---13---13---|
Ab :--------------------|--------------------|--------------------|
Db :--------------------|--------------------|--------------------|

                                                              
Eb :----------------|--------------------|--------------------|
Bb :----------------|--------------------|--------------------|
Gb :----------------|--------------------|--------------------|
Db :8---8---8---8---|10---10---10---10---|-*------------------|
Ab :----------------|--------------------|10---10---10---10---|
Db :----------------|--------------------|--------------------|

                                     
Eb :----------------|----------------|
Bb :----------------|----------------|
Gb :----------------|----------------|
Db :----------------|*---------------|
Ab :6---6---6---6---|5---5---5---5---|
Db :----------------|----------------|

                                                                  
Eb :--------------------|--------------------|--------------------|
Bb :--------------------|--------------------|--------------------|
Gb :--------------------|--------------------|--------------------|
Db :10---10---10---10---|12---12---12---12---|13---13---13---13---|
Ab :--------------------|--------------------|--------------------|
Db :--------------------|--------------------|--------------------|

                                                              
Eb :----------------|--------------------|--------------------|
Bb :----------------|--------------------|--------------------|
Gb :----------------|--------------------|--------------------|
Db :8---8---8---8---|10---10---10---10---|-*------------------|
Ab :----------------|--------------------|10---10---10---10---|
Db :----------------|--------------------|--------------------|

                                     
Eb :----------------|----------------|
Bb :----------------|----------------|
Gb :----------------|----------------|
Db :----------------|*---------------|
Ab :6---6---6---6---|5---5---5---5---|
Db :----------------|----------------|

                                                                  
Eb :--------------------|--------------------|--------------------|
Bb :--------------------|--------------------|--------------------|
Gb :--------------------|--------------------|--------------------|
Db :10---10---10---10---|12---12---12---12---|13---13---13---13---|
Ab :--------------------|--------------------|--------------------|
Db :--------------------|--------------------|--------------------|

                                                              
Eb :----------------|--------------------|--------------------|
Bb :----------------|--------------------|--------------------|
Gb :----------------|--------------------|--------------------|
Db :8---8---8---8--
Добавлено: 17.03.2012
Вам также может быть интересно:
Другие материалы по этой песне:
  • Аккорды и текст

Страница создана 17.03.2012
http://primanota.ru/red-sparowes/alone-and-unaware-the-landscape-was-transformed-in-front-of-our-eyes-chords.htm
Привет, Гость.
Предлагаем пройти революционный курс по гитаре.
Подарок от PrimaNota.Ru, забирай!