PrimaNota.ru - самый крупный в мире бесплатный архив песенных текстов, аккордов, табулатур и нот


Red Noise - Revolt Into Style - таба, видео

Регистрация Запомнить меня
Войти через:  Facebook Google Twitter Vk Yandex Mail.ru

Red Noise - Revolt Into Style - таба, видео

Печатать
Просмотров: 104
-------------------------------------------------------------------------------
Revolt Into Style - Red Noise
-------------------------------------------------------------------------------

Tabbed by: axe victim

Email: Leave a message on my  ‘Ultimate Guitar'  profile or comment
here and I'll get back to you.

Single from the  Sound on Sound  sessions.  Lots of guitars, but as
usual, I have tried to tab them as one guitar.  What a great track.


Tuning: EADGBe

| x  Mute note
|(xx0775) chord shape


Intro:

__________________________________
      ( drums... )
e|--------------------------------|
B|--------------------------------|
G|---------------------3---3---2--|
D|---------------------3---3---2--|
A|--------------------------------|
E|--------------------------------|

 | 1 - & - 2 - & - 3 - & - 4 - & -|

Main riff:


___G________________________________G______________________________

e|--------------------------------|--------------------------------|
B|--------------------------------|--------------------------------|
G|-0---0---------------3---3---2--|-0---0---------------3---3---2--|
D|-0---0---------------3---3---2--|-0---0---------------3---3---2--|
A|-x---x--------------------------|-x---x--------------------------|
E|-3---3--------------------------|-3---3--------------------------|

 | 1 - & - 2 - & - 3 - & - 4 - & -| 1 - & - 2 - & - 3 - & - 4 - & -|


___G________________________________F___________Bb__________C______

e|--------------------------------|--------------------------------|
B|--------------------------------|--------------------------------|
G|-0---0---------------3---3---2--|-------------3-----------5------|
D|-0---0---------------3---3---2--|-3-----------3-----------5------|
A|-x---x--------------------------|-3-----------1-----------3------|
E|-3---3--------------------------|-1------------------------------|


___G________________________________G______________________________

e|-------------3------------------|-------------3------------------|
B|-------------3------------------|-------------3------------------|
G|-0---0---------------3---3---2--|-0---0---------------3---3---2--|
D|-0---0---------------3---3---2--|-0---0---------------3---3---2--|
A|-x---x--------------------------|-x---x--------------------------|
E|-3---3--------------------------|-3---3--------------------------|


___G________________________________F___________Bb__________C______

e|-------------3------------------|--------------------------------|
B|-------------3------------------|--------------------------------|
G|-0---0---------------3---3---2--|-------------3-----------5------|
D|-0---0---------------3---3---2--|-3-----------3-----------5------|
A|-x---x--------------------------|-3-----------1-----------3------|
E|-3---3--------------------------|-1------------------------------|

Verse:


___Bb_______________________________C______________________________
         " The pos    -    ters     on  your    wall        mark... "
e|--------------------------------|--------------------------------|
B|-3-----------3------------------|-5-----------5------------------|
G|-3-----------3------------------|-5-----------5------------------|
D|-3-----------3------------------|-5-----------5------------------|
A|-1-----------1------------------|-3-----------3------------------|
E|--------------------------------|--------------------------------|

 | 1 - & - 2 - & - 3 - & - 4 - & -| 1 - & - 2 - & - 3 - & - 4 - & -|


___F________________________________Dm_____________________________
 " every       fa     -     shions  rise  and   fall... "
e|--------------------------------|--------------------------------|
B|--------------------------------|-6-----------6------------------|
G|--------------------------------|-7-----------7------------------|
D|-3-----------3------------------|-7-----------7------------------|
A|-3-----------3------------------|-5-----------5------------------|
E|-1-----------1------------------|--------------------------------|


___Bb_______________________________C______________________________
     " why     try         to       keep   the  past        a -  "
e|--------------------------------|--------------------------------|
B|-3-----------3------------------|-5-----------5------------------|
G|-3-----------3------------------|-5-----------5------------------|
D|-3-----------3------------------|-5-----------5------------------|
A|-1-----------1------------------|-3-----------3------------------|
E|--------------------------------|--------------------------------|


___D_______________Dsus4____________D_______________Dsus4__________
" - live.... "
e|-2---2---2---2---3---3---3---3--|-2---2---2---2---3---3---3---3--|
B|-3---3---3---3---3---3---3---3--|-3---3---3---3---3---3---3---3--|
G|-2---2---2---2---2---2---2---2--|-2---2---2---2---2---2---2---2--|
D|-0---0---0---0---0---0---0---0--|-0---0---0---0---0---0---0---0--|
A|--------------------------------|--------------------------------|
E|--------------------------------|--------------------------------|

 | 1 - & - 2 - & - 3 - & - 4 - & -| 1 - & - 2 - & - 3 - & - 4 - & -|


___Bb_______________________________C______________________________
      " And    though        I      know  the   time    is... "
e|--------------------------------|--------------------------------|
B|-3-----------3------------------|-5-----------5------------------|
G|-3-----------3------------------|-5-----------5------------------|
D|-3-----------3------------------|-5-----------5------------------|
A|-1-----------1------------------|-3-----------3------------------|
E|--------------------------------|--------------------------------|


___F________________________________Dm_____________________________
 " al    -    most      nineteen    eighty    four... "
e|--------------------------------|--------------------------------|
B|--------------------------------|-6-----------6------------------|
G|--------------------------------|-7-----------7------------------|
D|-3-----------3------------------|-7-----------7------------------|
A|-3-----------3------------------|-5-----------5------------------|
E|-1-----------1------------------|--------------------------------|


___Bb_______________________________C______________________________
 " it          feels       like     nineteen    six       -    ty... "
e|--------------------------------|--------------------------------|
B|-3-----------3------------------|-5-----------5------------------|
G|-3-----------3------------------|-5-----------5------------------|
D|-3-----------3------------------|-5-----------5------------------|
A|-1-----------1------------------|-3-----------3------------------|
E|--------------------------------|--------------------------------|


___D_______________Dsus4____________D______________________________
 " five... "
e|-2---2---2---2---3---3---3---3--|-2------------------------------|
B|-3---3---3---3---3---3---3---3--|-3------------------------------|
G|-2---2---2---2---2---2---2---2--|-2------------------------------|
D|-0---0---0---0---0---0---0---0--|-0------------------------------|
A|--------------------------------|--------------------------------|
E|--------------------------------|--------------------------------|


Repeat main riff.

Repeat verse.


Middle part: ( riff 2... )


___A_______________G________________F#______________G______________

e|--------------------------------|--------------------------------|
B|--------------------------------|--------------------------------|
G|--------------------------------|--------------------------------|
D|---------7---------------5------|---------4---------------5------|
A|-----7-------7-------5-------5--|-----4-------4-------5-------5--|
E|-5---------------3--------------|-2---------------3--------------|

 | 1 - & - 2 - & - 3 - & - 4 - & -| 1 - & - 2 - & - 3 - & - 4 - & -|


___A_______________G________________F#_____________________________

e|--------------------------------|--------------------------------|
B|--------------------------------|--------------------------------|
G|--------------------------------|--------------------------------|
D|---------7---------------5------|---------4----------------------|
A|-----7-------7-------5-------5--|-----4--------------------------|
E|-5---------------3--------------|-2------------------------------|

" I hear the... "

___A_______________G________________F#______________G______________
 " voice   of      America         telling  me  to  hurry   I   don't... "
e|--------------------------------|--------------------------------|
B|--------------------------------|--------------------------------|
G|--------------------------------|--------------------------------|
D|---------7---------------5------|---------4---------------5------|
A|-----7-------7-------5-------5--|-----4-------4-------5-------5--|
E|-5---------------3--------------|-2---------------3--------------|

 | 1 - & - 2 - & - 3 - & - 4 - & -| 1 - & - 2 - & - 3 - & - 4 - & -|


___A_______________G________________F#_____________________________
 " know,  should I stay or should I go? "     etc...
e|--------------------------------|--------------------------------|
B|--------------------------------|--------------------------------|
G|--------------------------------|--------------------------------|
D|---------7---------------5------|---------4----------------------|
A|-----7-------7-------5-------5--|-----4--------------------------|
E|-5---------------3--------------|-2------------------------------|

Repeat riff 2 until " Turning my revolt into... "

___D_______________________________________________________________
 " sty  -  i   -   i   -   i   -    i   -   i   -   i  -    i   - ... "
e|-2---2---2---2---2---2---2---2--|-2---2---2---2---2---2---2---2--|
B|-3---3---3---3---3---3---3---3--|-3---3---3---3---3---3---3---3--|
G|-2---2---2---2---2---2---2---2--|-2---2---2---2---2---2---2---2--|
D|-0---0---0---0---0---0---0---0--|-0---0---0---0---0---0---0---0--|
A|--------------------------------|--------------------------------|
E|--------------------------------|--------------------------------|


___D_______________________________________________________________
 " i   -   i   -   i   -   i   -    ile! "
e|-2---2---2---2---2---2---2---2--|-2------------------------------|
B|-3---3---3---3---3---3---3---3--|-3------------------------------|
G|-2---2---2---2---2---2---2---2--|-2------------------------------|
D|-0---0---0---0---0---0---0---0--|-0------------------------------|
A|--------------------------------|--------------------------------|
E|--------------------------------|--------------------------------|


Repeat main riff and verse, more or less the same as before, then:


Riff 3: ( Guitar plays something like this... )

 " I'll turn my revolt into.. "

___D_(xx0775)______________________________________________________
 " style... "
e|--------------------------------|-7-----------5------------------|
B|---------7-----------5----------|-----7-----------7-------8------|
G|-------------7-----------7------|---------7-----------7----------|
D|-0---------------0-----------0--|--------------------------------|
A|--------------------------------|--------------------------------|
E|--------------------------------|--------------------------------|

 | 1 - & - 2 - & - 3 - & - 4 - & -| 1 - & - 2 - & - 3 - & - 4 - & -|

Repeat riff 3 while drums crash, then...


___D_(xx0775)_______________________D______________________________
 " style... "
e|-5------------------------------|-5------------------------------|
B|-7------------------------------|-7------------------------------|
G|-7------------------------------|-7------------------------------|
D|-0------------------------------|-0------------------------------|
A|--------------------------------|--------------------------------|
E|--------------------------------|--------------------------------|


___D_(xx0775)_______________________D______________________________

e|-5------------------------------|-5------------------------------|
B|-7------------------------------|-7------------------------------|
G|-7------------------------------|-7------------------------------|
D|-0------------------------------|-0------------------------------|
A|--------------------------------|--------------------------------|
E|--------------------------------|--------------------------------|

Ending:


___D_______________________________________________________________
     ( palm mute... )
e|--------------------------------|--------------------------------|
B|--------------------------------|--------------------------------|
G|--------------------------------|--------------------------------|
D|--------------------------------|--------------------------------|
A|-12--12--12--12--12--12--12--12-|-12--12--12--12--12--12--12--12-|
E|-10--10--10--10--10--10--10--10-|-10--10--10--10--10--10--10--10-|


This next bit is two or more guitars on the recording, but I have
tried to tab it as one.  Barre D chord at 10th fret. Let high notes
ring, mute bass notes with right hand palm.

___D_______________________________________________________________

e|---------------------10---------|--------------------------------|
B|--------------------------------|-10-----------------------------|
G|---------11---------------------|--------------------------------|
D|--------------------------------|--------------------------------|
A|-12--12------12--12------12--12-|-----12--12--12--12--12--12--12-|
E|-10--10------10--10------10--10-|-----10--10--10--10--10--10--10-|


___D_______________________________________________________________

e|---------------------10---------|--------------------------------|
B|--------------------------------|-10-----------------------------|
G|---------11---------------------|--------------------------------|
D|--------------------------------|--------------------------------|
A|-12--12------12--12------12--12-|-----12--12--12--12--12--12--12-|
E|-10--10------10--10------10--10-|-----10--10--10--10--10--10--10-|


___D_______________A___________G________________D__________________

e|---------2-------0---0-------3--|-----3-------2---2--------------|
B|---------3-------2---2-------0--|-----0-------3---3--------------|
G|---------2-------2---2-------0--|-----0-------2---2--------------|
D|-0-------0-------2---2-------0--|-----0-------0---0--------------|
A|-----------------0---0-------x--|-----x--------------------------|
E|-----------------------------3--|-----3--------------------------|

 | 1 - & - 2 - & - 3 - & - 4 - & -| 1 - & - 2 - & - 3 - & - 4 - & -|

Words and music by Bill Nelson.
Добавлено: 02.07.2012
Вам также может быть интересно:
Другие материалы по этой песне:
  • Аккорды и текст

Страница создана 02.07.2012
http://primanota.ru/red-noise/revolt-into-style-chords.htm
Привет, Гость.
Предлагаем пройти революционный курс по гитаре.
Подарок от PrimaNota.Ru, забирай!