PrimaNota.ru - самый крупный в мире бесплатный архив песенных текстов, аккордов, табулатур и нот


Red Lorry Yellow Lorry - Strange Dreams - таба, видео

Регистрация Запомнить меня
Войти через:  Facebook Google Twitter Vk Yandex Mail.ru

Red Lorry Yellow Lorry - Strange Dreams - таба, видео

Печатать
Просмотров: 48
Уроки эстрадного вокала в Санкт-Петербурге
-------------------------------------------------------------------------------
                    Strange Dreams - Red Lorry Yellow Lorry
-------------------------------------------------------------------------------

Tabbed by: Maya L T 

Tuning: Standard


e|---------------------------------------------------------------------------|
B|---------------------------------------------------------------------------|
G|-----------5---7-----------------------------------------------------------|
D|-------7---------------7---9---10---9---5----------------------------------|
A|---5---------------5-------------------------------------------------------|
E|---------------------------------------------------------------------------|

This bit is played over the top.

e|---------------------------------------------------------------------------|
B|---------------------------------------------------------------------------|
G|---(7)---9-h-10-p-9--------7-------9---10---9--------7---------------------|
D|----------------------10-------8----------------10-------------------------|
A|---------------------------------------------------------------------------|
E|---------------------------------------------------------------------------|


That's the intro


************************************
| h   hammer-on
| p   pull-off
************************************
Добавлено: 01.11.2015
Другие материалы по этой песне:
  • Аккорды и текст

Страница создана 01.11.2015
http://primanota.ru/red-lorry-yellow-lorry/strange-dreams-chords.htm
Привет, Гость.
Предлагаем пройти революционный курс по гитаре.
Подарок от PrimaNota.Ru, забирай!