PrimaNota.ru - самый крупный в мире бесплатный архив песенных текстов, аккордов, табулатур и нот


Red Light Riot - End Of The Road - таба, видео

Регистрация Запомнить меня
Войти через:  Facebook Google Twitter Vk Yandex Mail.ru

Red Light Riot - End Of The Road - таба, видео

Печатать
Просмотров: 94
. - Mute
^ - bend up
/ - slide
~ - ring out/ hold
h - hammer on
p - pull off

E---------0--------0-----------0----------------|
B----0---------1---0------0---------1----0------|
G---0----2----0---0------0----2----0----0-------|  X6
D--2----2----2---2------2----2----2----2--------|
A-2----0----3---2------2----0----3----2---------|
E-----------------------------------------------|

E---------------------0-------|
B--------------------0--------|
G-------0---0---0---0---------|
D------0---0---0---0----------|
A-0-2-3---2---1---0-----------|
E-----------------------------|

E----------------------------------1-1-1-1-1-1-1-1------------------|
B----------------------------------1-1-1-1-1-1-1-1------------------|
G--1-1-1-1-1-1-1-1-2-2-2-2-2-2-2-2-2-2-2-2-2-2-2-2-2-2-2-2-2-2-2-2--| X2
D--2-2-2-2-2-2-2-2-2-2-2-2-2-2-2-2-3-3-3-3-3-3-3-3-2-2-2-2-2-2-2-2--|
A--2-2-2-2-2-2-2-2-2-2-2-2-2-2-2-2-3-3-3-3-3-3-3-3-2-2-2-2-2-2-2-2--|
E----------------------------------1-1-1-1-1-1-1-1------------------|
   . . . . . . . . . . . . . . . . . . . . . . . . . . . . . . . .

E---------0--------0-----------0----------------|
B----0---------1---0------0---------1----0------|
G---0----2----0---0------0----2----0----0-------|  X4
D--2----2----2---2------2----2----2----2--------|
A-2----0----3---2------2----0----3----2---------|
E-----------------------------------------------|

E---------------------0-------|
B--------------------0--------|
G-------0---0---0---0---------|
D------0---0---0---0----------|
A-0-2-3---2---1---0-----------|
E-----------------------------|


E----------------------------------1-1-1-1-1-1-1-1------------------|
B----------------------------------1-1-1-1-1-1-1-1------------------|
G--1-1-1-1-1-1-1-1-2-2-2-2-2-2-2-2-2-2-2-2-2-2-2-2-2-2-2-2-2-2-2-2--| X2
D--2-2-2-2-2-2-2-2-2-2-2-2-2-2-2-2-3-3-3-3-3-3-3-3-2-2-2-2-2-2-2-2--|
A--2-2-2-2-2-2-2-2-2-2-2-2-2-2-2-2-3-3-3-3-3-3-3-3-2-2-2-2-2-2-2-2--|
E----------------------------------1-1-1-1-1-1-1-1------------------|
   . . . . . . . . . . . . . . . . . . . . . . . . . . . . . . . .

e------------------------------------------------------|
B------------------------------------------------------|
G------------------------------------------------------|
D-----------------------12--12-14-12-------------------|
A---------10-11-12-13-14-------------14-13-12-11-10----|
E----10-12---------------------------------------------|

E----------------------------------------5-5-5----0~----|
B----------------------------------------5-5-5----0~----|
G--7-7-7---9~~----7-7-7---9~~----7-7-7---6-6-6----1~----|
D--7-7-7---9~~----7-7-7---9~~----7-7-7---7-7-7----2~----|
A--5-5-5---7~~----5-5-5---7~~----5-5-5---7-7-7----2~----|
E----------------------------------------5-5-5----0~----|

E-12-------------12---------------------------------------------|
B-15^17--15^17---15^17---15b17t--12-----------------------------|
G-------------------------------------14p12-14p12-14p12-14p12---|
D---------------------------------------------------------------|
A---------------------------------------------------------------|
E---------------------------------------------------------------|

E--------------------------------------------------|
B--------------------------------------------------|
G--------------------------------------------------|
D--12h14~~-------16-14-16s18s16-------14p12~~------|
A--------------------------------------------------|
E--------------------------------------------------|


e------------------------------------------------------------------------|
b------------------------------------------------------------------------|
g-----------------------------------------------------7-9-7---7----------|
d------------------------7-9-7---9-7---7--7-7-----7-9-------9------------|
a-3^4--0--3^4--5-7p5-7/9-------9-----9-----------------------------------|
E------------------------------------------------------------------------|

e-------------7----------------------------------------10-----------------|
b---------------10-7------------------------------------------------------|
g----7--9^11---------9-7---9-7---7-9-7---7-7----7-9^11------^9--7---------|
d--9---------------------9-----9-------9-----9----------------------------|
a-------------------------------------------------------------------------|
E-------------------------------------------------------------------------|

E----------------------------------------5-5-5----0~-----------|
B----------------------------------------5-5-5----0~-----------|
G--7-7-7---9~~----7-7-7---9~~----7-7-7---6-6-6----1~-----------|
D--7-7-7---9~~----7-7-7---9~~----7-7-7---7-7-7----2~-----------| X2
A--5-5-5---7~~----5-5-5---7~~----5-5-5---7-7-7----2~-----------|
E----------------------------------------5-5-5----0~-----------|

E----------------------------------1-1-1-1-1-1-1-1------------------|
B----------------------------------1-1-1-1-1-1-1-1------------------|
G--1-1-1-1-1-1-1-1-2-2-2-2-2-2-2-2-2-2-2-2-2-2-2-2-2-2-2-2-2-2-2-2--| X2
D--2-2-2-2-2-2-2-2-2-2-2-2-2-2-2-2-3-3-3-3-3-3-3-3-2-2-2-2-2-2-2-2--|
A--2-2-2-2-2-2-2-2-2-2-2-2-2-2-2-2-3-3-3-3-3-3-3-3-2-2-2-2-2-2-2-2--|
E----------------------------------1-1-1-1-1-1-1-1------------------|
   . . . . . . . . . . . . . . . . . . . . . . . . . . . . . . . .


E---------------------------------------|
B---------------------------------------|
G--7-7-7---9~~-------------------9------|
D--7-7-7---9~~-------------------9------|
A--5-5-5---7~~-------------------7------|
E---------------------------------------|
Добавлено: 05.06.2012
Другие материалы по этой песне:
  • Аккорды и текст

Страница создана 05.06.2012
http://primanota.ru/red-light-riot/end-of-the-road-chords.htm
Привет, Гость.
Предлагаем пройти революционный курс по гитаре.
Подарок от PrimaNota.Ru, забирай!