PrimaNota.ru - самый крупный в мире бесплатный архив песенных текстов, аккордов, табулатур и нот


Red House Glory - Painkiller - таба, видео

Регистрация Запомнить меня
Войти через:  Facebook Google Twitter Vk Yandex Mail.ru

Red House Glory - Painkiller - таба, видео

Печатать
Просмотров: 71
Intro

E|------------------------------------------------------------------|
G|------------------------------------------------------------------|
B|------------------------------------------------------------------|
D|-----------5-------5-----5------7-8-----5-------5-----5-------7-5-|
A|------------7-5--7--5-7----7-5--7-8------7-5--7--5-7----7-5-7-----|
E|---12/0-0--------------0--------5-6---0--------------0------------|

E|--------------------------------------|
G|--------------------------------------|
B|--------------------------------------|
D|-----5-------5------------------------|
A|------7-5--7--5-7---------------------|
E|---0--------------0--5-7-5-0-0-5-7~-0~|

Pre-Chorus

E|------------------------------------|
G|------------------------------------|
B|---------------1~-----------------1~|
D|---------------2~-----------------2~|
A|---7-7---9-9---2~-----5-5---9-9---2~|
E|---5-5---7-7----------3-3---7-7-----| x2

Chorus

E|--------------------------------------------------------------|
G|--------------------------------------------------------------|
B|---1-1--------------------------------------------------------|
D|---2-2--------------------------------------------------------|
A|---2-2---3-3---7-7---9-9-7--------3-3---9-9---7-x-7-x-7-x-777-|
E|---------3-3---5-5---7-7-5-(x2)---3-3---7-7---5-x-5-x-5-x-555-|

2nd Pre-Chorus/Pre-Solo

E|------------------------------------3~---7~--5~--3~-----5~--7~-|
G|---3^---7^--5^--3^--7^--5^----------3~---7~--5~--3~(x2)-5~--7~-|
B|---3^---7^--5^--3^--7^--5^-(Chorus)----------------------------|
D|---------------------------------------------------------------|
A|---------------------------------------------------------------|
E|---------------------------------------------------------------|

I don't know the solo, although I will update if i work/find it out.

Please give feedback.

Добавлено: 01.11.2013
Вам также может быть интересно:
Другие материалы по этой песне:
  • Аккорды и текст

Страница создана 01.11.2013
http://primanota.ru/red-house-glory/painkiller-chords.htm
Привет, Гость.
Предлагаем пройти революционный курс по гитаре.
Подарок от PrimaNota.Ru, забирай!