PrimaNota.ru - самый крупный в мире бесплатный архив песенных текстов, аккордов, табулатур и нот


Red Hot Chili Peppers - Warlocks - текст песни, таба, бас-таба, видео

Регистрация Запомнить меня
Войти через:  Facebook Google Twitter Vk Yandex Mail.ru

Red Hot Chili Peppers - Warlocks - текст песни, таба, бас-таба, видео

Печатать
Просмотров: 291
Artist:    Red Hot Chili Peppers
Song:      Warlocks
Album:     Stadium Arcadium
Tuning:    Standard
Tabbed by: Adam Seto

***Note: Although I wrote most of the tab, I still need to give credit to the Hal and 
tab book. I only used it for the interlude (It is fricken' hard to tab it by ear!) and the 
on the solo.

Legend:

^    Full bend (the number above means the number of steps you bend up)
x    Muffled strings
()   Note is made by releasing a bend without picking
/\   Shift slide (the second note is picked after slide)
<>   Legato slide (the second note is not picked after slide)
_________________________________________________________________________________________

Intro:

  Gtr. 1
E|-----------------|----------------|-----------------|-----------------|
B|-----------------|----------------|-----------------|-----------------|
G|--x-x-7-x-x-9-x--|--x-x-7-x-x-9-9-|--x-x-7-x-x-9-x--|--x-x-7-x-x-9-9--|
D|--x-x-x-x-x-x-x--|--x-x-x-x-x-x-x-|--x-x-x-x-x-x-x--|--x-x-x-x-x-x-x--|
A|-----------------|----------------|-----------------|-----------------|
E|-----------------|----------------|-----------------|-----------------|
_________________________________________________________________________________________

Verse: (Intro played 2 times)
_________________________________________________________________________________________

Chorus:

    Em                                       Cadd9
 Gtr.1
E|--12-12--12--12-12-12-12-12-12-12-12-x-x-|-10---10--10-10-10-10-10-10-10-10-x-x--|
B|--12-12--12--12-12-12-12-12-12-12-12-x-x-|-8----8---8--8--8--8--8--8--8--8--x-x--|
G|--12-12--12--12-12-12-12-12-12-12-12-x-x-|-9----9---9--9--9--9--9--9--9--9--x-x--|
D|--14-14--14--14-14-14-14-14-14-14-14-x-x-|-10---10--10-10-10-10-10-10-10-10-x-x--|
A|-----------------------------------------|---------------------------------------|
E|-----------------------------------------|---------------------------------------|

    Am6                                      G                  D
E|--14---14--14-14-14-14-14-14-14-14-x-x--|----------------------------------------|
B|--13---13--13-13-13-13-13-13-13-13-x-x--|--12---12---12--x-x--10---10------------|
G|--14---14--14-14-14-14-14-14-14-14-x-x--|--12---12---12--x-x--11---11------------|
D|--x----x---x--x--x--x--x--x--x--x--x-x--|--12---12---12--x-x--12---12------------|
A|--12---12--12-12-12-12-12-12-12-12------|--10---10---10--x-x--12---12------------|
E|----------------------------------------|----------------------------------------|
_________________________________________________________________________________________

Interlude:

  Gtr.1
E|-------------------|-------------------|-------------------|-------------------|
B|-------------------|-------------------|-------------------|-------------------|
G|---------7---------|---------7---------|---------7---------|---------7---------|
D|--------------5--7-|-------------------|--------------5--7-|-------------------|
A|--7----------------|--7----------------|--7----------------|--7----------------|
E|----0--------------|----0--------------|----0--------------|----0--------------|
 |
 |Gtr.2 and 3 (Gtr. 3 plays all notes on G string)
 |                                   1                                       1
E|------12-----12----|------12-----15^---|------12-----12----|------12-----15^---|
B|---15-----15----15-|---15-----15-------|---15-----15----15-|---15-----15-------|
G|----------7-/14-12-|----------7>>14/---|----------7-/14-12-|----------7>>14/---|
D|-------------------|-------------------|-------------------|-------------------|
A|-------------------|-------------------|-------------------|-------------------|
E|-------------------|-------------------|-------------------|-------------------|
 |
 |Gtr.4 (Gradually release all bends back to the not in brackets)
 |     1         1            1         1      1         1            1         1
E|-----^---------^---|--------^---------^|-----^---------^---|--------^---------^|
B|----8^---(8)/12^---|(12)---8^---(8)/12^|----8^---(8)/12^---|(12)---8^---(8)/12^|
G|-------------------|-------------------|-------------------|-------------------|
D|-------------------|-------------------|-------------------|-------------------|
A|-------------------|-------------------|-------------------|-------------------|
E|-------------------|-------------------|-------------------|-------------------|
_________________________________________________________________________________________

VERSE
_________________________________________________________________________________________

CHORUS
_________________________________________________________________________________________

Bridge: (Play intro once first)

E|--10--10-10-10-10-10-10-10-10-10-10-10-10-10-10-|
B|--8---8--8--8--8--8--8--8--8--8--8--8--8--8--8--|
G|--9---9--9--9--9--9--9--9--9--9--9--9--9--9--9--|
D|--10--10-10-10-10-10-10-10-10-10-10-10-10-10-10-|
A|------------------------------------------------|
E|------------------------------------------------|

E|--10-10-10-10-10-10-10-10-10-10-10-10-10-10-10-10-|
B|--8--8--8--8--8--8--8--8--8--8--8--8--8--8--8--8--|
G|--9--9--9--9--9--9--9--9--9--9--9--9--9--9--9--9--|
D|--10-10-10-10-10-10-10-10-10-10-10-10-10-10-10-10-|
A|--------------------------------------------------|
E|--------------------------------------------------|

E|--12-12-12-12-12-12-12-12-12-12-12-12-12-12-12-12-|
B|--13-13-13-13-13-13-13-13-13-13-13-13-13-13-13-13-|
G|--11-11-11-11-11-11-11-11-11-11-11-11-11-11-11-11-|
D|--------------------------------------------------|
A|--------------------------------------------------|
E|--------------------------------------------------|

E|--12-12-12-12-12-12-12-12-12-12-12-12-12-12-12-x-10-|
B|--13-13-13-13-13-13-13-13-13-13-13-13-13-13-13-x-8--|
G|--11-11-11-11-11-11-11-11-11-11-11-11-11-11-11-x-9--|
D|-----------------------------------------------x----|
A|----------------------------------------------------|
E|----------------------------------------------------|

E|--10-10-10-10-10-10-10-10-10-10-10-10-10-10-10-10-|
B|--8--8--8--8--8--8--8--8--8--8--8--8--8--8--8--8--|
G|--9--9--9--9--9--9--9--9--9--9--9--9--9--9--9--9--|
D|--10-10-10-10-10-10-10-10-10-10-10-10-10-10-10-10-|
A|--------------------------------------------------|
E|--------------------------------------------------|

E|--10-10-10-10-10-10-10-10-10-10-10-10-10-10-10-x--|
B|--8--8--8--8--8--8--8--8--8--8--8--8--8--8--8--x--|
G|--9--9--9--9--9--9--9--9--9--9--9--9--9--9--9--x--|
D|--10-10-10-10-10-10-10-10-10-10-10-10-10-10-10-x--|
A|--------------------------------------------------|
E|--------------------------------------------------|

E|--12-12-12-12-12-12-12-12-12-12-12-12-12-12-12-x-14-|
B|--13-13-13-13-13-13-13-13-13-13-13-13-13-13-13-x-13-|
G|--11-11-11-11-11-11-11-11-11-11-11-11-11-11-11-x-14-|
D|-----------------------------------------------x----|
A|----------------------------------------------------|
E|----------------------------------------------------|

E|--14-14-14-14-14-14-14-15-15-15-15-15-15-15-15--|
B|--13-13-13-13-13-13-13-13-13-13-13-13-13-13-13--|
G|--14-14-14-14-14-14-14-14-14-14-14-14-14-14-14--|
D|------------------------------------------------|
A|------------------------------------------------|
E|------------------------------------------------|
_________________________________________________________________________________________

Solo:
                                                             1 ½    1 ½             1 ½
E|--0------0--0---0--0---0--0---0----0---0---0---0-----0-----^----0-^-------0--0--0-^---|
B|--15h17--17-17--17-17--17-17--17---17--17--17--15h17-17--17^----17^--(17)-17-17-17^---|
G|--------------------------------------------------------------------------------------|
D|--------------------------------------------------------------------------------------|
A|--------------------------------------------------------------------------------------|
E|--------------------------------------------------------------------------------------|

E|---------------------------------------------------------------------------------|
B|--(17)---15h17-17--17p15----15---------------------------------------------------|
G|-------------------------16-----16p14p12-14--14p12---12--------------------------|
D|--------------------------------------------------14-----14p12----14-------------|
A|---------------------------------------------------------------12----14p12p10-12-|
E|---------------------------------------------------------------------------------|
                                                                            1/4
E|--------------------------------------------------------------------------^------|
B|--------------------------------------------------------------------------^------|
G|------------------------------------------------------------7---7--9--9/12^-12\\\|
D|---------------------------------------------5-----5--7h9-----9------------------|
A|--12p10----10------------------------5---5h7---7---------------------------------|
E|-------12-------12>>>>>>>3--0--3h5h7---------------------------------------------|
_________________________________________________________________________________________

VERSE
_________________________________________________________________________________________

CHORUS
_________________________________________________________________________________________

Outro Solo: (in addition to chorus. Starts on the G chord):

W/Wah Wah

                      1/2                    1                    1     1
E|---------------------^---------------------^--------------------^-----^-------|
B|---------------------^---------------------^--------------------^--15-^-------|
G|---------------------^---------------------^--------------------14----14-(14)-|
D|-----------12--14--14^-(14)-12--12h14----14^--(14)p12--14p12------------------|
A|--10>>14----------------------------------------------------------------------|
E|------------------------------------------------------------------------------|
    1               1/2                1   1
E|--^---------------^------------------^---^----------------------------|
B|--15--(15)-12-----^------------------^---^----------------------------|
G|------------------14--(14)--12----14-14--12--(12)----------12h14--12--|
D|-----------------------------------------------------12h14------------|
A|----------------------------------------------------------------------|
E|----------------------------------------------------------------------|
    1     1                     1               1    1
E|--^-----^---------------------^-------------17^--17^-(17)--12---|
B|--^--15-^-------------------15^-(15)--12------------------------|
G|--14----14-(14)p12--14p12---------------------------------------|
D|----------------------------------------------------------------|
A|----------------------------------------------------------------|
E|----------------------------------------------------------------|
Добавлено: 18.07.2012
Другие материалы по этой песне:

Страница создана 22.02.2012
http://primanota.ru/red-hot-chili-peppers/warlocks-chords.htm
Привет, Гость.
Предлагаем пройти революционный курс по гитаре.
Подарок от PrimaNota.Ru, забирай!