PrimaNota.ru - самый крупный в мире бесплатный архив песенных текстов, аккордов, табулатур и нот


Red Hot Chili Peppers - Time - аккорды и текст, таба, бас-таба, видео

Регистрация Запомнить меня
Войти через:  Facebook Google Twitter Vk Yandex Mail.ru

Red Hot Chili Peppers - Time - аккорды и текст, таба, бас-таба, видео

Печатать
Просмотров: 229
Time
Red Hot Chili Peppers
 Intro
 
E|x----------------x-----------------x-----------------x-|
B|x----------------x-----------------x-----------------x-|
G|x----------------x-----------------x-----------------x-|
D|-------------------------------------------------------|
A|-------------------------------------------------------|
E|-------------------------------------------------------|

 Verse (With Delay)

E|12---------------15----------------12----------------15-|
B|13---------------13----------------13----------------13-|
G|14---------------------------------14-------------------|
D|-----------------15----------------------------------15-|
A|--------------------------------------------------------|
E|--------------------------------------------------------|

 Chorus (Panned hard right)

E|-----------------------------|
B|-----------------------------|
G|7h9--------------7---7h9-9-9-|
D|-----------------------------|
A|----77-77------7---7---------|
E|----------1010---------------|

 Bridge

E|-----------------14----------------------------------12-|
B|16---------------14---------------14-----------------12-|
G|16---------------14---------------14-----------------13-|
D|16---------------16---------------14-----------------14-|
A|14---------------16---------------12-----------------14-|
E|-----------------14----------------------------------12-|

 Outro (Distortion, Repeat each line a few times)

E|-------------14-12-----12--------------------------|
B|12--12-12-12--------15----15---12--12-12-12--12----|
G|------------------------------------------------11-|
D|---------------------------------------------------|
A|---------------------------------------------------|
E|---------------------------------------------------|

E|----------------0-2-0---0-------------------|
B|0--00-0-000-00--------3----0--00-0-000-00---|
G|--------------------------------------------|
D|------------------------------------------4-|
A|--------------------------------------------|
E|--------------------------------------------|
Добавлено: 09.12.2013
Другие материалы по этой песне:

Страница создана 28.03.2012
http://primanota.ru/red-hot-chili-peppers/time-chords.htm
Привет, Гость.
Предлагаем пройти революционный курс по гитаре.
Подарок от PrimaNota.Ru, забирай!