PrimaNota.ru - самый крупный в мире бесплатный архив песенных текстов, аккордов, табулатур и нот


Red Hot Chili Peppers - Taste The Pain - аккорды и текст, таба, бас-таба, драм-таба, видео

Регистрация Запомнить меня
Войти через:  Facebook Google Twitter Vk Yandex Mail.ru

Red Hot Chili Peppers - Taste The Pain - аккорды и текст, таба, бас-таба, драм-таба, видео

Печатать
Просмотров: 182
Уроки эстрадного вокала в Санкт-Петербурге
Taste The Pain
Red Hot Chili Peppers
Intro & Verse
E|------------------------------------------|
B|------------------------------------------|
G|------------------------------------------|
D|------------------------------------------|
A|--7-7-7-7-10-10-10-10---7-7-7-10-10-10-10-|
E|------------------------------------------|

Chorus
E|-------------------------|
B|-------------------------|
G|-------------------------|
D|--7-7-10-10---7-7--10-10-|
A|-------------------------|
E|-------------------------|

Riff (played right after chorus)
   E5
E|--12--12--12----12-|
B|--12--12--12----12-|
G|-------------------|
D|-------------------|
A|-------------------|
E|-------------------|

Play this 2 times.
E|--5---8-|
B|--6---5-|
G|--------|
D|--------|
A|--------|
E|--------|

Play this 2 times.
E|--------|
B|--6---5-|
G|--7---5-|
D|--------|
A|--------|
E|--------|

E|-------------------------------------------------|
B|-------------------------------------------------|
G|--------------------------5-----5--5p7h5--7------|
D|--5h7-7--7p5-7--------5/7---7----------------5/7-|
A|---------------5---------------------------------|
E|-------------------------------------------------|

Bass
E|---------------------------------|
B|---------------------------------|
G|---------------------------------|
D|---------------------------5-----|
A|---------3-3-5-5-5/7---8-------7-|
E|--5-5-5--------------------------|

   A5
E|--------|
B|--------|
G|--7-7-7-|
D|--7-7-7-|
A|--5-5-5-|
E|--------|
Добавлено: 29.03.2014
Другие материалы по этой песне:

Страница создана 29.03.2012
http://primanota.ru/red-hot-chili-peppers/taste-the-pain-chords.htm
Привет, Гость.
Предлагаем пройти революционный курс по гитаре.
Подарок от PrimaNota.Ru, забирай!