PrimaNota.ru - самый крупный в мире бесплатный архив песенных текстов, аккордов, табулатур и нот


Red Hot Chili Peppers - Slane Castle Gig - таба, видео

Регистрация Запомнить меня
Войти через:  Facebook Google Twitter Vk Yandex Mail.ru

Red Hot Chili Peppers - Slane Castle Gig - таба, видео

Печатать
Просмотров: 119
Title:       Slane Castle Gig Intro (on DVD and Video)
Band:        The Red Hot Chili Peppers
Tabbed by:   Stuart Smith (stuart@smith9009.freeserve.co.uk) 
 

The intro to the Slane Castle gig sounded so good I thought
I'd have a goat tabbing it.  Its just about right I think except a part
near the end needs a bit of work so all comments and improvements
welcome! 
 
Play it in standard tuning with plenty of sustain and overdrive,
preferably with a guitar with single coil pickups (Frusciante played this
with a Strat).
 
Notation:
 
bu = bend up
bd = bend down
v  = vibrato
h  = hammer on
po = pull off
 
 
 
Play this 3 times:
 
E-----------------------------------------------------------
B--15v-15v-15-15-15h18-18-18-18bu-18bd-15-15-15v-15v--------
G----------------------------------------------------14v-14v
D-----------------------------------------------------------
A-----------------------------------------------------------
E-----------------------------------------------------------
 

On 4th repeat play:
 
E-----------------------------------------------------------
B--15v-15v-15-15-15h18-18-18-18bu-18bd-15-15-15v-15v--------
G-----------------------------------------------------17-14-
D-----------------------------------------------------------
A-----------------------------------------------------------
E-----------------------------------------------------------
 
E-----------------------------------------------------------
B-----------------------------------------------------------
G--17-14-14-17-14-14-17-14-14 etc---------------------------
D-----------------------------------------------------------
A-----------------------------------------------------------
E-----------------------------------------------------------
 
Then play this 3 times:
 
E--------------------------------------------------------
B--21bu----21bu-21-19----18v-----------------------------
G---------------------21---------------------------------
D--------------------------------------------------------
A--------------------------------------------------------
E--------------------------------------------------------
 

On 4th repeat play:
 
E-----------------------------------------------------------
B--19bu---19bu---18v----------------------------------------
G-----------------------------------------------------------
D-----------------------------------------------------------
A-----------------------------------------------------------
E-----------------------------------------------------------
 

E--------------------------------------------------------
B--21bu----21bu-21-19----18v-----------------------------
G---------------------21---------------------------------
D--------------------------------------------------------
A--------------------------------------------------------
E--------------------------------------------------------
 

Then play this 2 times:
 
E--------19------------------------------------------------
B--21bu-----21bu-21-19----18v------------------------------
G----------------------21----------------------------------
D----------------------------------------------------------
A----------------------------------------------------------
E----------------------------------------------------------
 
Then this 4 times:
 
E----------------------------------------------------------
B---20bu-20bd-18-------------------------------------------
G----------------------------------------------------------
D----------------------------------------------------------
A----------------------------------------------------------
E----------------------------------------------------------
 

E-----------------------------------------------------------
B---15h17bu17bd repeat loads then 13-13-13-13-10-10-10-10-10
G-----------------------------------------------------------
D-----------------------------------------------------------
A-----------------------------------------------------------
E-----------------------------------------------------------
 

E-----------------------------------------------------------
B---19h21bu21bd repeat loads--------------------------------
G-----------------------------------------------------------
D-----------------------------------------------------------
A-----------------------------------------------------------
E-----------------------------------------------------------
 
Then this 3 times:
 
E---------20------------------------------------------------
B---21bu----------------------------------------------------
G-----------------------------------------------------------
D-----------------------------------------------------------
A-----------------------------------------------------------
E-----------------------------------------------------------
 

Then:
 

E--21bu--21bu-------21bu-21bd-------------------------------
B------------------------------18-20-18-20-18-18-18v--------
G-----------------------------------------------------------
D-----------------------------------------------------------
A-----------------------------------------------------------
E-----------------------------------------------------------
 
 
 
E---------------21bu----------------------------------------
B--20-18-18-18-------18-20--18-20-18-20-18-18v--------------
G-----------------------------------------------------------
D-----------------------------------------------------------
A-----------------------------------------------------------
E-----------------------------------------------------------
 
 
 
E-----------------------------------------------------------
B----18h20po18--18h20po18--18h20po18--18h20po18--18h20po18--
G-----------------------------------------------------------
D-----------------------------------------------------------
A-----------------------------------------------------------
E-----------------------------------------------------------
 
 
 
E-----------------------------------------------------------
B----18h20po18--18h20po18--18h20po18--18h20po18-------------
G------------------------------------------------19v--------
D-----------------------------------------------------------
A-----------------------------------------------------------
E-----------------------------------------------------------
 
 
 
Any comments or corrections email me at stuart@smith9009.freeserve.co.uk

     
Добавлено: 25.07.2013
Другие материалы по этой песне:
  • Аккорды и текст

Страница создана 25.07.2013
http://primanota.ru/red-hot-chili-peppers/slane-castle-gig-chords.htm
Привет, Гость.
Предлагаем пройти революционный курс по гитаре.
Подарок от PrimaNota.Ru, забирай!