PrimaNota.ru - самый крупный в мире бесплатный архив песенных текстов, аккордов, табулатур и нот


Red Hot Chili Peppers - Scar Tissue Live - таба, видео

Регистрация Запомнить меня
Войти через:  Facebook Google Twitter Vk Yandex Mail.ru

Red Hot Chili Peppers - Scar Tissue Live - таба, видео

Печатать
Просмотров: 205
 
                                   scar tissue live at slane
now this is that jam after by the way 
please go easy on me this is my first tab 
     ^  upwards                                                                                    
      
E||---------------------x-x-|--------------------x--|--------------------------|
B||--6----x--6-------6--x-x-|--5--5-----6--------x--|--6--6-----6-------6--x-x-|
G||--7----x--7-------7--x-x-|--5--5-----7--------x--|--7--7-----7-------7--x-x-|
D||--7----x--7-------7--x-x-|--7--7-----8--------x--|--7--7-----7-------7--x-x-|
A||--5----x--5-------5------|--7--7-----8-----------|--5--5-----5-------5--x-x-|
E||-------------------------|-----------------------|--------------------------|


    
-----8--------------------|------10-10-10------------10-10-10-10----|
--5--5-----6--------10-10-|--10--10-10-10--13-13-13--10-10-10-10----|
--5--5-----7--------10-10-|--10--10-10-10--10-10-10--10-10-10-10----|
--7--7-----8--------12-12-|--12----------------------12-12-12-12----|
--x--x-----8--------12-12-|--12-------------------------------------|
--------------------------|-----------------------------------------|


    
--5--5----6----6-6-6-L----|-----10-10-10--13-13-13--10----------|
--5--5----6----6-6-6-L----|-----10-10-10------------10--13--10--|
--5--5----7----7-7-7-L----|-----10-10-10--10-10-10--10--10--10--|
--7--7----8----8-8-8-L----|-----12-12-12--12-12-12--12------12--|
--7--7----8----8-8-8-L----|---------------------------------12--|
--------------------------|-------------------------------------|


    
-----5----6----6-6-6-6----|------------13-13-13-13---------------------|
--5--5----6----6-6-6-6----|--10--10-10-11-11-11-11--10--10-10-10-10-10-|
--5--5----7----7-7-7-7----|--10--10-10-10-10-10-10--10--10-10-10-10-10-|
--7--7----8----8-8-8-8----|--12--12-12-12-12-12-12--12--12-12-12-12-12-|
--7--x----8----8-8-8-8----|--12--12-12--------------12--12-12-12-12-12-|
--------------------------|--------------------------------------------|


     
------10-------------------------|--------------------------------------------|
--10--10----11----11-11-11-11----|--10--10-10-11-11-11-11--10--10-10-10-10-10-|
---9---9----10----10-10-10-10----|--10--10-10-10-10-10-10--10--10-10-10-10-10-|
--10--------12----12-12-12-12----|--12--12-12-12-12-12-12--12--12-12-12-12-12-|
------------------13-13-13-13----|--12--12-12-12-12-12-12--12--12-12-12-12-12-|
---------------------------------|--------------------------------------------|

 
------10---------------------13-13-|--13-13-13-13-13-13-13-17--15--13--15----|
--10--10----11----11-11-11---15-15-|--15-15-15-15-15-15-15-15--15--15--15----|
---9---9----10----10-10-10---14-14-|--14-14-14-14-14-14-14-------------------|
--10--------12----12-12-12---------|-----------------------------------------|
------------------13-13-13---------|-----------------------------------------|
-----------------------------------|-----------------------------------------|


     
--12-12-12-12----13-13-13-13-13-13-13-13----|
--13-13-13-13----15-15-15-15-15-15-15-15----|
--14-14-14-14----15-15-15-15-15-15-15-15----|
--------------------------------------------|
--------------------------------------------|
--------------------------------------------|


     
---------13--13-13---17--15--13--15--|---------12-----------13------------|
------15-----15-15---15--15--15--15--|------13-13---------------15--15----|
--14---------14-14-------------------|--14-----------15--15---------15----|
-------------------------------------|------------------------------------|
-------------------------------------|------------------------------------|
-------------------------------------|------------------------------------|


      
---------13--13-13---17--15--13--15--|---------12-----------13---------13--|
------15-----15-15---15--15--15--15--|------13-13---------------15---------|
--14---------14-14-------------------|--14-----------15--15-----15--15-----|
-------------------------------------|-------------------------------------|
-------------------------------------|-------------------------------------|
-------------------------------------|-------------------------------------|


                                                   ^            
     
----------------------------------------|----------------------|
---------10-----10------------10----10--|--5--5----6-----------|
------10-----10----10------10----10-10--|--5--5----7-----------|
--12-------------------12--12-------12--|--7--7----8-----------|
----------------------------------------|--7--7----8-----------|
----------------------------------------|----------------------|

i know he starts playing on the 3 fret d string and 5 fret e but who cares he plays it both ways anyway 
   
-------------------------------|--------------------------------|
-------10----10---10----10--5--|--5S-6--L-6----6---6----6S-5----|
-------------------------------|--------------------------------|
-------------------------------|--------------------------------|
--8--------8----8----8------3--|--3S-5--L----5---5---5-------3--|
-------------------------------|--------------------------------|


       
----------------------------------|------------------------------------|
-------10----10---10---10---5-----|--5S-6--L-(6)---------8h-10-8--6----|
------------------------------x-x-|------------------------------------|
------------------------------x-x-|---------------(3)------------------|
--8--------8----8----8----8---x-x-|--3S-5--L---------------------------|
------------------------------x-x-|------------------------------------|


     
-------------------------------|----------------------------------------|
-------10----10---10----10-----|----------------------------------------|
----------------------------9--|--9S-10--L-10-----10----10-----10S-9----|
-------------------------------|----------------------------------------|
--8--------8----8----8---------|----------------------------------------|
----------------------------8--|--8S-10--L-----10----10----10--------8--|

   
------------------------------|----------------------------------------------|
-------10----10---10----------|----------------------------------------------|
------------------------------|------------------(10)---(10)---(10)---(9)----|
------------------------------|----------------------------------------------|
--8--------8----8-------------|----------------------------------------------|
---------------------------8--|--8S-10--L-10--10-----------------------------|


     
--5--5-L-L-5-5-5-L-5-5--------|-----------------------------|
--6--6-L-L-6-6-6-L-6-6-----5--|-------6-L-L-6-6-6-L-6-6--5--|
--5--5-L-L-5-5-5-L-5-5-----5--|-------7-L-L-7-7-7-L-7-7--5--|
--7--7-L-L-7-7-7-L-7-7-----5--|-------7-L-L-7-7-7-L-7-7--5--|
--8--8-L-L-8-8-8-L-8-8-----3--|--5----5-L-L-5-5-5-L-5-5--3--|
------------------------------|-----------------------------|


    
--5--5-L-L-5-5-5-L-5-5--------|-----------------------------|
--6--6-L-L-6-6-6-L-6-6-----5--|-------6-L-L-6-6-6-L-6-6-----|
--5--5-L-L-5-5-5-L-5-5-----5--|-------7-L-L-7-7-7-L-7-7-----|
--7--7-L-L-7-7-7-L-7-7-----5--|-------7-L-L-7-7-7-L-7-7-----|
--8--8-L-L-8-8-8-L-8-8-----3--|--5----5-L-L-5-5-5-L-5-5--7--|
------------------------------|--------------------------8--|


    
-------------------------------|-----------------------------------------|
-------10----10---10----10-----|-----------------------------------------|
----------------------------9--|--9S-10--L-10-----10----10-----10----10--|
-------------------------------|-----------------------------------------|
--8--------8----8----8---------|-----------------------------------------|
----------------------------8--|--8S-10--L-----10----10----10-----10-----|


    
-------------------------------|------------------------------|
-------10----10---10----10--5--|--5S-6--L-6----6-----6--6-----|
-------------------------------|------------------------------|
-------------------------------|-------------3---3-3----------|
--8--------8----8----8------3--|------------------------------|
-------------------------------|------------------------------|


    
--5--5-L-L-5-5-5-L-5-5--------|-----------------------------|
--6--6-L-L-6-6-6-L-6-6-----5--|-------6-L-L-6-6-6-L-6-6--5--|
--5--5-L-L-5-5-5-L-5-5-----5--|-------7-L-L-7-7-7-L-7-7--5--|
--7--7-L-L-7-7-7-L-7-7-----5--|-------7-L-L-7-7-7-L-7-7--5--|
--8--8-L-L-8-8-8-L-8-8-----3--|--5----5-L-L-5-5-5-L-5-5--3--|
------------------------------|-----------------------------|


     
--5--5-L-L-5-5-5-L-5-5--------|-----------------------------|
--6--6-L-L-6-6-6-L-6-6-----5--|-------6-L-L-6-6-6-L-6-6-----|
--5--5-L-L-5-5-5-L-5-5-----5--|-------7-L-L-7-7-7-L-7-7-----|
--7--7-L-L-7-7-7-L-7-7-----5--|-------7-L-L-7-7-7-L-7-7-----|
--8--8-L-L-8-8-8-L-8-8-----3--|--5----5-L-L-5-5-5-L-5-5--7--|
------------------------------|--------------------------8--|


       
--5--5-L-L-5-5-5-------------|------------------------|
--6--6-L-L-6-6-6----6-----5--|-------6--L-6-6----6----|
--5--5-L-L-5-5-5----5-----5--|-------7--L-7-7----7----|
--7--7-L-L-7-7-7----5-----5--|-------7--L-7-7----7----|
--8--8-L-L-8-8-8----3-----3--|--5----5--L-5-5----5----|
-----------------------------|------------------------|


   \1/                              first solo use heavy distortion                         
    
------------------------------|----------------------------|
--15----15----15----15br---L--|---L--13---------L------10--|
------------------------------|--------------------12------|
------------------------------|----------------------------|
------------------------------|----------------------------|
------------------------------|----------------------------|


       
--------------------------------------|-------------------------------|
--15-13-10-------10-13--13--13br--10--|--10-------10--L-12br----10----|
--------------12----------------------|--------12---------------------|
--------------------------------------|-------------------------------|
--------------------------------------|-------------------------------|
--------------------------------------|-------------------------------|


     
-------------------------------|---------------------------------------|
-------10----10---10----10-----|---------------------------------------|
----------------------------9--|--9S-10--L-10-----10----10--L-10S-9----|
-------------------------------|---------------------------------------|
--8--------8----8----8---------|---------------------------------------|
----------------------------8--|--8S-10--L-----10----10-------------8--|


    
-------------------------------|--------------------------------|
-------10----10---10----10--8--|--5S-6--L-6----6---6---6---L--L-|
-------------------------------|--------------------------------|
-------------------------------|--------------------------------|
--8--------8----8-----8--------|--3S-5--L----5-------5----------|
-------------------------------|--------------------------------|


     
--5--5-L-L-5-5-5-L-5-5--------|-----------------------------|
--6--6-L-L-6-6-6-L-6-6-----5--|-------6-L-L-6-6-6-L-6-6--5--|
--5--5-L-L-5-5-5-L-5-5-----5--|-------7-L-L-7-7-7-L-7-7--5--|
--7--7-L-L-7-7-7-L-7-7-----5--|-------7-L-L-7-7-7-L-7-7--5--|
--8--8-L-L-8-8-8-L-8-8-----3--|--5----5-L-L-5-5-5-L-5-5--3--|
------------------------------|-----------------------------|

   
--5--5-L-L-5-5-5-L-5-5--------|-----------------------------|
--6--6-L-L-6-6-6-L-6-6-----5--|-------6-L-L-6-6-6-L-6-6-----|
--5--5-L-L-5-5-5-L-5-5-----5--|-------7-L-L-7-7-7-L-7-7-----|
--7--7-L-L-7-7-7-L-7-7-----5--|-------7-L-L-7-7-7-L-7-7-----|
--8--8-L-L-8-8-8-L-8-8-----3--|--5----5-L-L-5-5-5-L-5-5--7--|
------------------------------|--------------------------8--|


     
-------------------------------|---------------------------------------|
-------10----10---10----10-----|---------------------------------------|
----------------------------9--|--9S-10--L-10-----10----10-----10---L--|
-------------------------------|---------------------------------------|
--8--------8----8----8---------|---------------------------------------|
----------------------------8--|--8S-10--L-----10----10----10----------|


  
------------------------------|----------------------------------------------|
-------10----10---10----------|----------------------------------------------|
------------------------------|------------------(10)---(10)---(10)---(9)----|
------------------------------|----------------------------------------------|
--8--------8----8-------------|----------------------------------------------|
---------------------------8--|--8S-10--L-10--10-----------------------------|


    
--5--5-L-L-5-5-5-L-5-5--------|-----------------------------|
--6--6-L-L-6-6-6-L-6-6-----5--|-------6-L-L-6-6-6-L-6-6--5--|
--5--5-L-L-5-5-5-L-5-5-----5--|-------7-L-L-7-7-7-L-7-7--5--|
--7--7-L-L-7-7-7-L-7-7-----5--|-------7-L-L-7-7-7-L-7-7--5--|
--8--8-L-L-8-8-8-L-8-8-----3--|--5----5-L-L-5-5-5-L-5-5--3--|
------------------------------|-----------------------------|


   
--5--5-L-L-5-5-5-L-5-5--------|-----------------------------|
--6--6-L-L-6-6-6-L-6-6-----5--|-------6-L-L-6-6-6-L-6-6-----|
--5--5-L-L-5-5-5-L-5-5-----5--|-------7-L-L-7-7-7-L-7-7-----|
--7--7-L-L-7-7-7-L-7-7-----5--|-------7-L-L-7-7-7-L-7-7-----|
--8--8-L-L-8-8-8-L-8-8-----3--|--5----5-L-L-5-5-5-L-5-5--7--|
------------------------------|--------------------------8--|


       
--5--5-L-L-5-5-5-------------|------------------------|
--6--6-L-L-6-6-6----6-----5--|-------6--L-6-6----6----|
--5--5-L-L-5-5-5----5-----5--|-------7--L-7-7----7----|
--7--7-L-L-7-7-7----5-----5--|-------7--L-7-7----7----|
--8--8-L-8-8-8-8----3-----3--|--5----5--L-5-5----5----|
-----------------------------|------------------------|


     second solo again with the distortion
---------------------------------|--------------------------------|
--20b----L--20-18-20----L--18-17-|--18----L--17----17----L--------|
---------------------------------|--------------19----------19-17-|
---------------------------------|--------------------------------|
---------------------------------|--------------------------------|
---------------------------------|--------------------------------|


      
-----------------------------------------|-------------------------------------|
--18-17----------------------------------|--18-17-------------------------20b--|
--------19--19--19--19--L-19-17-19-19-19-|--------19--19--19--19--19--19-------|
------------------------------x----------|-------------------------------------|
-----------------------------------------|-------------------------------------|
-----------------------------------------|-------------------------------------|

 
------20---L-17--------------------------|
---L------------20-18-20-18---------20b--|
----------------------------19--19-------|
-----------------------------------------|
-----------------------------------------|
-----------------------------------------|


    
------20------------------------------|----------------------------17-------|
---L--------20-18-20-18---------20br--|---L--17--17----L--17-18-20----20-18-|
------------------------19--19--------|-------------------------------------|
--------------------------------------|-------------------------------------|
--------------------------------------|-------------------------------------|
--------------------------------------|-------------------------------------|


     
----------------------------------|--------------------------------|
--18----18-17---L-20br---L--18----|-----10--10----10---10-----L----|
----------------------------------|-----------------------------9--|
----------------------------------|--------------------------------|
----------------------------------|--8----------8----8-------------|
----------------------------------|-----------------------------8--|


     
---------------------------------------|-------------------------------|
---------------------------------------|-------10----10---10----10-----|
--9S-10--L-10-----10-------10------10--|-------------------------------|
---------------------------------------|-------------------------------|
---------------------------------------|--8--------8----8-----8--------|
--8S-10--L-----10-----L-10-----10------|----------------------------8--|


    
--------------------------------------------------|
--------------------------------------------------|
-----------10-----(10)---(10)---(12)-(12)-(10)----|
--------------------------------------------------|
--------------------------------------------------|
--8S-10--L-----10---------------------------------|


     
--5--5-L-L-5-5-5-L-5-5--------|-----------------------------|
--6--6-L-L-6-6-6-L-6-6-----5--|-------6-L-L-6-6-6-L-6-6--5--|
--5--5-L-L-5-5-5-L-5-5-----5--|-------7-L-L-7-7-7-L-7-7--5--|
--7--7-L-L-7-7-7-L-7-7-----5--|-------7-L-L-7-7-7-L-7-7--5--|
--8--8-L-L-8-8-8-L-8-8-----3--|--5----5-L-L-5-5-5-L-5-5--3--|
------------------------------|-----------------------------|


   
--5--5-L-L-5-5-5-L-5-5--------|-----------------------------|
--6--6-L-L-6-6-6-L-6-6-----5--|-------6-L-L-6-6-6-L-6-6-----|
--5--5-L-L-5-5-5-L-5-5-----5--|-------7-L-L-7-7-7-L-7-7-----|
--7--7-L-L-7-7-7-L-7-7-----5--|-------7-L-L-7-7-7-L-7-7-----|
--8--8-L-L-8-8-8-L-8-8-----3--|--5----5-L-L-5-5-5-L-5-5--7--|
------------------------------|--------------------------8--|


   
--5--5-L-L-5-5-5-------------|------------------------|
--6--6-L-L-6-6-6----6-----5--|-------6--L-6-6----6----|
--5--5-L-L-5-5-5----5-----5--|-------7--L-7-7----7----|
--7--7-L-L-7-7-7----5-----5--|-------7--L-7-7----7----|
--8--8-L-L-8-8-8----3-----3--|--5----5--L-5-5----5----|
-----------------------------|------------------------|

last solo outro  distortion  not sure if john plays this but sounds close
     
--20-17--L-17--17-20-20b----22-20-17--|--17----17--17-20b----L--20-17--|
--------------------------------------|--------------------------------|
--------------------------------------|--------------------------------|
--------------------------------------|--------------------------------|
--------------------------------------|--------------------------------|
--------------------------------------|--------------------------------|

 
-------------------19b----17-----|--17----17--17--17----------------|
--20----20--20---L-----------20--|-------------------20-18--17--18--|
---------------------------------|----------------------------------|
---------------------------------|----------------------------------|
---------------------------------|----------------------------------|
---------------------------------|----------------------------------|


     
----------------17----------------|-----------------------------------------|
--L--20b-----L-----20-18--17--18--|---L--20b---L-20b---L-20pbr--18--17--18--|
----------------------------------|-----------------------------------------|
----------------------------------|-----------------------------------------|
----------------------------------|-----------------------------------------|
----------------------------------|-----------------------------------------|


      
----------------------------------|
--20-18-17--17-----L--13----15br--|
----------------------------------|
----------------------------------|
----------------------------------|
----------------------------------|


   this is probably the way john plays it                       
                                                               
--------------------------------------------------------------------------------
---L--------------------------------------15----15-13----15-13------------------
------------------------------------------------------14-------14---------------
--------------------------------------------------------------------------------
--------------------------------------------------------------------------------
--------------------------------------------------------------------------------


    
-----------15----------------15----------------15----------------15-------|
--15-13-------13----15-13-------13----15-13-------13----15-13-------13----|
--------14-------14-------14-------14-------14-------14-------14-------14-|
--------------------------------------------------------------------------|
--------------------------------------------------------------------------|
--------------------------------------------------------------------------|


  
-----------15----------------15----------------15---------------------|
--15-13-------13----15-13-------13----15-13-------13------------------|
--------14-------14-------14-------14-------14-------14-x-x--x-x-x--x-|
----------------------------------------------------------------------|
----------------------------------------------------------------------|
----------------------------------------------------------------------|


 
-----17--15----13--12--13------|-----------------------------------------|
-------------------------------|-----------------------13g17----15-13-15-|
-----------------------------x-|--(5)S--17s--14----x-x-------------------|
-------------------------------|-----------------------------------------|
-------------------------------|-----------------------------------------|
-------------------------------|-----------------------------------------|


      
------------------------------------|---------------------------------17S--|
---L--15--15-13-15--15-13-------15--|--15--15S--17--17S--18--18S--20-------|
--------------------------14--------|--------------------------------------|
------------------------------------|--------------------------------------|
------------------------------------|--------------------------------------|
------------------------------------|--------------------------------------|


                 use tremelo to get the right sound                             
                 |------------------3------------------| 
   S   S  S   S  S                                  S  S  S  S  S  S  S  S  S  S
--18S-20-22S-20-17---------------------------------20-17-20-17-20-17-20-17-20-17
--------------------------------------------------------------------------------
--------------------------------------------------------------------------------
--------------------------------------------------------------------------------
--------------------------------------------------------------------------------
--------------------------------------------------------------------------------


   
--17-20-17-20-17-20-17-20-17-20-17-20-17-20-17-20-17-20-17-20-17-20-17-20-|
--------------------------------------------------------------------------|
--------------------------------------------------------------------------|
--------------------------------------------------------------------------|
--------------------------------------------------------------------------|
--------------------------------------------------------------------------|


                                                               \1/     
      
--17-20-17-20-17-20-17-20-17-20-17-20-17-20-17-20-17-20-17-20-17---L--|
----------------------------------------------------------------------|
----------------------------------------------------------------------|
----------------------------------------------------------------------|
----------------------------------------------------------------------|
----------------------------------------------------------------------|


                                                 
                                         


                                                 
                                 
--------------------------------------------------------------------------------
---L--15------------------------15-13p-10-15-13p-10-15-13p-10-15-13p-10-15-13p-1
--------------------------------------------------------------------------------
--------------------------------------------------------------------------------
--------------------------------------------------------------------------------
--------------------------------------------------------------------------------


                             
    
------------15------------------------------------------------------------------
--15-13p-10----------------------------------------------------13p-10-15-13p-10-
--------------------------------------------------------------------------------
--------------------------------------------------------------------------------
--------------------------------------------------------------------------------
--------------------------------------------------------------------------------


    
------------15------------------15------------------15--------------------------
--15-13p-10----13p-10-15-13p-10----13p-10-15-13p-10----13p-10-------------------
--------------------------------------------------------------x-x--x-x-x--x-----
--------------------------------------------------------------------------------
--------------------------------------------------------------------------------
--------------------------------------------------------------------------------



Добавлено: 19.04.2012
Другие материалы по этой песне:

Страница создана 19.04.2012
http://primanota.ru/red-hot-chili-peppers/scar-tissue-live-chords.htm
Привет, Гость.
Предлагаем пройти революционный курс по гитаре.
Подарок от PrimaNota.Ru, забирай!