PrimaNota.ru - самый крупный в мире бесплатный архив песенных текстов, аккордов, табулатур и нот


Red Hot Chili Peppers - Nothing To Lose - таба, видео

Регистрация Запомнить меня
Войти через:  Facebook Google Twitter Vk Yandex Mail.ru

Red Hot Chili Peppers - Nothing To Lose - таба, видео

Печатать
Просмотров: 264
RHCP Nothing To Lose

A great song,I didn't find any tabs for the song so i decided to tab it out for you :)

Intro:

     C#m           Emaj Amaj     Bmaj  C#m           Amaj     Bmaj
e|---9---9---9-----7----5--5-5----7-----9---9---9-----5--5-5---7-7-7-7-7-|
B|---9---9---9-----9----5--5-5----7-----9---9---9-----5--5-5---7-7-7-7-7-|
G|---9---9---9-----9----6--6-6----8-----9---9---9-----6--6-6---8-8-8-8-8-|x3
D|---11--11--11----9----7--7-7----9-----11--11--11----7--7-7---9-9-9-9-9-|
A|---11--11--11--7-7----7--7-7----9-----11--11--11----7--7-7---9-9-9-9-9-|
E|-9-9---9---9--------5-5--5-5--7-7---9-9---9---9---5-5--5-5---7-7-7-7-7-|

Verse:

do this fill:

|-x-9-9p7-|
|---------|
|---------|
|---------|
|---------|
|---------|

then C#m Emaj Amaj Bmaj C#m Amaj Bmaj

and then another fill:

|--9-7---9-7---9-7---9-7---9-7---9-------9-7---9-7---9-7---9-7---9-7-----|
|------9-----9-----9-----9-----9-------9-----9-----9-----9-----9-----9---|
|------------------------------------------------------------------------|x2
|------------------------------------------------------------------------|
|------------------------------------------------------------------------|
|------------------------------------------------------------------------|

the second time around do the second part like this:

|----9-7---9-7---9-7-----|
|--9-----9-----9-----9-9-|
|------------------------|
|------------------------|
|------------------------|
|------------------------|

Then:

    C#m           Emaj Amaj      Bmaj  C#m           Amaj     Bmaj
|---9---9---9-----7----5--5-5----7-----9---9---9-----5--5-5---7-7-7-7-7-|
|---9---9---9-----9----5--5-5----7-----9---9---9-----5--5-5---7-7-7-7-7-|
|---9---9---9-----9----6--6-6----8-----9---9---9-----6--6-6---8-8-8-8-8-|x1
|---11--11--11----9----7--7-7----9-----11--11--11----7--7-7---9-9-9-9-9-|
|---11--11--11--7-7----7--7-7----9-----11--11--11----7--7-7---9-9-9-9-9-|
|-9-9---9---9--------5-5--5-5--7-7---9-9---9---9---5-5--5-5---7-7-7-7-7-|

Solo 1:

|-15b-15b~---15r-14-14b-12h14p12-----------12--14-14b--12-11-12-11b-----|
|--------------------------------14-12-14---------------------------14--|
|-----------------------------------------------------------------------|
|-----------------------------------------------------------------------|
|-----------------------------------------------------------------------|
|-----------------------------------------------------------------------|

Then:

|-12-x-x-12-x-12-x--12-12-12--9--x-x-9--x-9---11-11--|
|-14-x-x-14-x-14-x--12-12-12--10-x-x-10-x-10--12-12--|
|-13-x-x-13-x-13-x--13-13-13--9--x-x-9--x-9---11-11--|x2
|----------------------------------------------------|
|----------------------------------------------------|
|----------------------------------------------------|

Solo 2:

(16's and 17's)

|-161617171616161616161616161616-------------------------------------------|
|---------------------------------16-14-16-14--14-16-16-14-16-14----14-14--|
|----------------------------------------------------------------16--------|
|--------------------------------------------------------------------------|
|--------------------------------------------------------------------------|
|--------------------------------------------------------------------------|

|-----------------------------------------------------------------------|
|--16-14----14-16--16-14----14-16-14-16-14----14-16--16-14----14-16-14--|
|--------16--------------16----------------16--------------16-----------|
|-----------------------------------------------------------------------|
|-----------------------------------------------------------------------|
|-----------------------------------------------------------------------|

End on:

|-----------------|
|-16-14----14-14--|
|-------16--------|
|-----------------|
|-----------------|
|-----------------|

Then:

|-9--x-x-9--x-9--x-9--9--x-x-5-x-x-5-x-5-x-7-7-x-x-|
|-9--x-x-9--x-9--x-9--9--x-x-5-x-x-5-x-5-x-7-7-x-x-|
|-9--x-x-9--x-9--x-9--9--x-x-6-x-x-6-x-6-x-8-8-x-x-|x4
|-11-x-x-11-x-11-x-11-11-x-x-7-x-x-7-x-7-x-9-9-x-x-|
|-11-x-x-11-x-11-x-11-11-x-x-7-x-x-7-x-7-x-9-9-x-x-|
|-9--x-x-9--x-9--x-9--9--x-x-5-x-x-5-x-5-x-7-7-x-x-|

Then:

|-----------------------------------------------------------------|
|-----------------------------------------------------------------|
|-11b11b11b11b11b11b11b11b11b11b11b11b11b11b11b11b11b11b11b11b~-9-|
|-----------------------------------------------------------------|
|-----------------------------------------------------------------|
|-----------------------------------------------------------------|

Solo 3:

|-----------------------------------------------------|
|-----------------------------------------------------|
|-9--9h11p9--11p9--11--11b--9----11h13-13/16-16b-16b--|
|-----------------------------------------------------|
|-----------------------------------------------------|
|-----------------------------------------------------|

|-16b--10--9-7-9-9-12-14b--12--11br-9-9--9bp7---7h9--9bp7---7h9--|
|---------------------------------------------9-----------9------|
|----------------------------------------------------------------|
|----------------------------------------------------------------|
|----------------------------------------------------------------|
|----------------------------------------------------------------|

|----------------------------------------------------------------|
|------------------------------12---------------14---------------|
|-9h11--11p9-11-11b--9---11/13----11p9----11h13----11p9-11-11-9--|
|--------------------------------------11------------------------|
|----------------------------------------------------------------|
|----------------------------------------------------------------|

Then another verse:

|-9---9---9--9--9--9---5-5-5-7-7-7--|
|-9---9---9--9--9--9---5-5-5-7-7-7--|
|-9---9---9--9--9--9---6-6-6-8-8-8--|
|-11--11--11-11-11-11--7-7-7-9-9-9--|
|-----------------------------------|
|-----------------------------------|

|-9---9---9--9--9--9---5-5-5-7-7-7-7-7-7--|
|-9---9---9--9--9--9---5-5-5-7-7-7-7-7-7--|
|-9---9---9--9--9--9---6-6-6-8-8-8-8-8-8--|
|-11--11--11-11-11-11--7-7-7-9-9-9-9-9-9--|
|-----------------------------------------|
|-----------------------------------------|

|---------9---9---9---9---9---9---5-5-5-7-7-7--|
|---------9---9---9---9---9---9---5-5-5-7-7-7--|
|---------9---9---9---9---9---9---6-6-6-8-8-8--|
|9h11-11--11--11--11--11--11--11--7-7-7-9-9-9--|
|----------------------------------------------|
|----------------------------------------------|

|-9---9---9--9--9--9---5-5-5-7-7-7-7-7-7--|
|-9---9---9--9--9--9---5-5-5-7-7-7-7-7-7--|
|-9---9---9--9--9--9---6-6-6-8-8-8-8-8-8--|
|-11--11--11-11-11-11--7-7-7-9-9-9-9-9-9--|
|-----------------------------------------|
|-----------------------------------------|

Bridge:

|-9--9--9--9--9--9--9--9--9--9--9--9--5/9--9--9--9--9--9--9--|
|-9--9--9--9--9--9--9--9--9--9--9--9--5/9--9--9--9--9--9--9--|
|-9--9--9--9--9--9--9--9--9--9--9--9--6/9--9--9--9--9--9--9--|x2
|-11-11-11-11-11-11-11-11-11-11-11-11-7/11-11-11-11-11-11-11-|
|------------------------------------------------------------|
|------------------------------------------------------------|

|--------------------------------------------------------|
|-9----9-----9----9-----14--14--14--14--14--14--14--14---|
|-11b--11b~--11b--11b---16b-16b-16b-16b-16b-16b-16b-16b--|
|--------------------------------------------------------|
|--------------------------------------------------------|
|--------------------------------------------------------|

|------------------------------------------------------------|
|-9----10---10---9----7---5---4-----7---9----7---5---4---5---|
|-11b--12b--12b--11b--9b--7b--6b----9b--11b--9b--7b--6b--7b--|
|------------------------------------------------------------|
|------------------------------------------------------------|
|------------------------------------------------------------|

|-5-7---9-11--11b-11b--16--14-----------------19-----19-----19-19p16--|
|-----------------------------17-16--16b--16b----16b----16b-----------|
|---------------------------------------------------------------------|
|---------------------------------------------------------------------|
|---------------------------------------------------------------------|
|---------------------------------------------------------------------|

|----16--------------------------------------|
|-14----14-14/12--12-12/9--9-9b-9b-9b-9br-9--|
|--------------------------------------------|
|--------------------------------------------|
|--------------------------------------------|
|--------------------------------------------|

Verse again:

|-9--x-x-9--x-9--x-9--9--x-x-5-x-x-5-x-5-x-7-7-x-x-|
|-9--x-x-9--x-9--x-9--9--x-x-5-x-x-5-x-5-x-7-7-x-x-|
|-9--x-x-9--x-9--x-9--9--x-x-6-x-x-6-x-6-x-8-8-x-x-|x7
|-11-x-x-11-x-11-x-11-11-x-x-7-x-x-7-x-7-x-9-9-x-x-|
|-11-x-x-11-x-11-x-11-11-x-x-7-x-x-7-x-7-x-9-9-x-x-|
|-9--x-x-9--x-9--x-9--9--x-x-5-x-x-5-x-5-x-7-7-x-x-|

|---------------------------------|
|---------------------------------|
|---------------------------------|
|--11-9----11---------11-9----11--|
|-------11-----------------11-----|
|---------------------------------|

|----------------------------------|
|----------------------------------|
|----------------------------------|
|-11-9----11--11-9----11--11-9-----|
|------11----------11----------11--|
|----------------------------------|

|----------------------------------|
|----------------------------------|
|----------------------------------|
|-11-9----11--11-9----11--11-9-----|
|------11----------11----------11--|
|----------------------------------|

|-------------------------------------------------------------|
|-------------------------------------------------------------|
|----------------------------------11-9-8-9--11-9-8-9-11-9-8--|x9
|-11-9----11--11-9----11--11-9--------------------------------|
|------11----------11----------11-----------------------------|
|-------------------------------------------------------------|

The tenth time do it like this:

|----------------------------------|
|----------------------------------|
|----------------------------------|
|-11-9----11--11-9----11--11-9-----|
|------11----------11----------11--|
|----------------------------------|

|------------------------------------|
|------------------------------------|
|-11-9-8-9-9-9--11-9-11-9--11-11h13--|
|------------------------------------|
|------------------------------------|
|------------------------------------|

|-------------------------------------------------|
|-12-12h14-14-14--12h14-14-14--12h14-14-14--------|
|------------------------------------------14-14--|
|-------------------------------------------------|
|-------------------------------------------------|
|-------------------------------------------------|

|-----------------------------------------------------|
|-1414141414141414141414141414--14141414141414141414--|
|-1313131313131313131313131313--14141414141414141414--|
|-----------------------------------------------------|
|-----------------------------------------------------|
|-----------------------------------------------------|

|-----------------------------------------------------|
|-1414141414141414141414141414--14141414141414141414--|
|-1313131313131313131313131313--14141414141414141414--|
|-----------------------------------------------------|
|-----------------------------------------------------|
|-----------------------------------------------------|

|-------------------------------14141414141414141414--|
|-1414141414141414141414141414--14141414141414141414--|
|-1313131313131313131313131313--14141414141414141414--|
|-----------------------------------------------------|
|-----------------------------------------------------|
|-----------------------------------------------------|

|-------------------------------14141414161616141414--|
|-1414141414141414141414141414--14141414141414141414--|
|-1313131313131313131313131313--14141414141414141414--|x4
|-----------------------------------------------------|
|-----------------------------------------------------|
|-----------------------------------------------------|

|----------------------------------------------------------|
|-1414141414141414141414141414/12121212121212121212121212--|
|-1313131313131313131313131313/11111111111111111111111111--|
|----------------------------------------------------------|
|----------------------------------------------------------|
|----------------------------------------------------------|

|--------------------------------------------------|
|-1010101010101010101010101010/999999999999999999--|
|--9-9-9-9-9-9-9-9-9-9-9-9-9-9/888888888888888888--|
|--------------------------------------------------|
|--------------------------------------------------|
|--------------------------------------------------|

|----------------------------------------------------------|
|-1414141414141414141414141414/12121212121212121212121212--|
|-1313131313131313131313131313/11111111111111111111111111--|
|----------------------------------------------------------|
|----------------------------------------------------------|
|----------------------------------------------------------|

|------------------------------------------|
|-1010101010101010101010101010/9999999999--|
|--9-9-9-9-9-9-9-9-9-9-9-9-9-9/8888888888--|
|------------------------------------------|
|------------------------------------------|
|------------------------------------------|

|-121212121212121212121212121616161616161614141414141414161616161616--|
|---------------------------------------------------------------------|
|---------------------------------------------------------------------|
|---------------------------------------------------------------------|
|---------------------------------------------------------------------|
|---------------------------------------------------------------------|

|-121212121212121212121212121616161616161614141414141414/1919191919191919--|
|--------------------------------------------------------------------------|
|--------------------------------------------------------------------------|
|--------------------------------------------------------------------------|
|--------------------------------------------------------------------------|
|--------------------------------------------------------------------------|

|-161616161616161616161616161616161616161616161616/14141414141414141414--|
|------------------------------------------------------------------------|
|------------------------------------------------------------------------|
|------------------------------------------------------------------------|
|------------------------------------------------------------------------|
|------------------------------------------------------------------------|

|-121212121212121212/1111/1212121212121212/999999999--|
|-----------------------------------------------------|
|-----------------------------------------------------|
|-----------------------------------------------------|
|-----------------------------------------------------|
|-----------------------------------------------------|

|-----------------------------------------------------------------|
|-----------------------------------------------------------------|
|-11b--9h11p9-8h9p8--------------------------------------8-9-8----|
|-------------------11-1111p9h11--11b-9h11p9----9-11--11-------11-|
|--------------------------------------------11-------------------|
|-----------------------------------------------------------------|

|------------------------------------|
|------------------------------------|
|-11b--11-11-11-11--11b-11b-11b-11b--|
|------------------------------------|
|------------------------------------|
|------------------------------------|

Then John goes like this with some kind of an effect.

|----------------------------------|
|----------------------------------|
|-11b-11b-11b-11b-11b-11b-11b-11b--|
|----------------------------------|
|----------------------------------|
|----------------------------------|

I'll TRY TO TAB OUT THE REST soon,this should keep you busy for a while.Enjoy :)
Добавлено: 27.07.2013
Другие материалы по этой песне:

Страница создана 14.03.2012
http://primanota.ru/red-hot-chili-peppers/nothing-to-lose-chords.htm
Привет, Гость.
Предлагаем пройти революционный курс по гитаре.
Подарок от PrimaNota.Ru, забирай!