PrimaNota.ru - самый крупный в мире бесплатный архив песенных текстов, аккордов, табулатур и нот


Red Hot Chili Peppers - My friends two guitars - таба, видео

Регистрация Запомнить меня
Войти через:  Facebook Google Twitter Vk Yandex Mail.ru

Red Hot Chili Peppers - My friends two guitars - таба, видео

Печатать
Просмотров: 326
Уроки эстрадного вокала в Санкт-Петербурге


The Red Hot Chili Peppers
My Friends

by SnaZZ


Tune the low E string to D (1 step down) on guitar 1.

NB  spaces doesn't give exactly the right rythm, so listen to the song.
Vertically the two guitars should match.

Intro:
------
Guitar 2:
e:-----
B:-----
G:-----
D:-5-3-
A:-----
E:-----


Guitar 1 (left speaker only):
e:-----0---------0--------------------------|------0---------0------0---0---0---|
B:-----3---------3------3-------------------|------3---------3------3---3---3---|
G:---2-------0h2--------0---------0h2p0-----|----2---------2--------0---0---0---|
D:-0-----0-3------3---0-------0h2-------2p0-|--0-----0-3------3----------0h2----|
A:------------------2-----2-3---------------|---------------------2---2-3-------|
D:------------------------------------------|-------------------3---------------|

Guitar 2 (right speaker only):
e:-----0---------0--------------------------|------0---------0------------------|
B:-----3---------3------3-------------------|------3---------3------3-----------|
G:---2-------0h2--------0-----------2p0-----|----2-------0h2--------0-----------|
D:-0-----0-3------3---0---------0-------2---|--0-----0-3------3---0------5---3--|
A:------------------2-----2-2p3-------------|-------------------2--------5---3--|
E:------------------------------------------|-------------------------0-3---1---|



Verse 1:
--------
Guitar 1 (left speaker only):
e:-----0---------0--------------------------|------0---------0------0---0---0---|
B:-----3---------3------3-------------------|------3---------3------3---3---3---|
G:---2-------0h2--------0---------0h2p0-----|----2---------2--------0---0---0---|
D:-0-----0-3------3---0-------0h2-------2p0-|--0-----0-3------3-----------------|
A:------------------2-----2-3---------------|---------------------2---2---------|
D:------------------------------------------|-------------------3---------------|

Guitar 2 (right speaker only):
e:-----0---------0--------------------------|------0---------0------------------|
B:-----3---------3------3-------------------|------3---------3------3-----------|
G:---2---------2--------0------------2p0----|----2---------2--------0-----------|
D:-0-----0-3------3---0---------0---------2-|--0-----0-3------3---0------5---3--|
A:------------------2-----2-2p3-------------|-------------------2--------5---3--|
E:------------------------------------------|-------------------------0-3---1---|

Guitar 1 (left speaker only):
e:----3p2p0------0--------------------------|------0---------0---0---0-------0--|
B:---------------3------3-------------------|------3---------3---3---3-------3--|
G:---2---------2--------0-----------0-------|----2---------2-----0---0-------0--|
D:-0-------3------3---0---------0h2-------2-|--0-----0-3------3-----------------|
A:------------------2-----2---3-------------|----------------------------3---3--|
D:------------------------------------------|-----------------------------------|

Guitar2 (right speaker only):
e:-----0--------0---------------------------|
B:-----3--------3------3--------------------|
G:---2--------2--------0-------------2p0----|
D:-0-----0-3------3---0---------0---------2-| x2
A:------------------2-----2-2p3-------------|
E:------------------------------------------|



Verse 2:
--------
Guitar 1:
e:------0--------0----------------------|------0--------0----------------------|------0--------0------------0-------|
B:----3----3---3----3-----3-------3-----|----3----3---3----3-----3-------3-----|----3----3---3----3-----3---3-------|
G:---2--------2---------0---0---0----0--|---2--------2---------0---0---0----0--|---2--------2---------0---0---------|
D:--0--------3---------0-------2--------|--0--------3---------0-------2--------|--0--------3---------0--------------|
A:--------------------2-------3---------|--------------------2-------3---------|--------------------2---------------|
D:--------------------------------------|--------------------------------------|------------------------------------|

Guitar 2:
e:--2---2----0---0----3---3-------------|--2---2----0---0----3---3-------------|--2---2----0---0----3---3-----------|
B:--3---3----3---3----3---3-------------|--3---3----3---3----3---3-------------|--3---3----3---3----3---3-----------|
G:--2---2----2---2----0---0-------------|--2---2----2---2----0---0-------------|--2---2----2---2----0---0-----------|
D:--0---0----3---3----0---0------0h2-0--|--0---0----3---3----0---0------0h2-0--|--0---0----3---3----0---0-----------|
A:--------------------2---2---2h3-------|--------------------2---2---2h3-------|--------------------2---2---2h3-----|
E:--------------------3---3-------------|--------------------3---3-------------|--------------------3---3-----------|



Chorus:
-------
Guitar 1 (right speaker only):
e:--------0---------------------------0000--|------------------------------------------|
B:---------0-----------------------2222333--|------------------------------------------|
G:----------2--------------------222222222--|------------------------------------------|
D:-------------------------------222222-----|------------------------------------------|
A:-------------------------------000--------|------------------------------------------|
E:------------------------------------------|------------------------------------------|

Guitar 2:
e:------------------------------------------|------------------------------------------|
B:--1----1--------1--------3---2------------|--1----1--------1--------3---2------------|
G:--0----2--------0--------0---2------------|--0----2--------0--------0---2------------|
D:--2----2------2--------4-----2------------|--2----2------2--------4-----2------------|
A:--3----0----3------3--5------0------------|--3----0----3------3--5------0------------|
E:------------------------------------------|------------------------------------------|



Verse 3:
--------
Guitar 1:
e:------0--------0----------------------|------0--------0-------------------------|------0--------0------------0-------|
B:----3----3---3----3-----3-------3-----|----3----3---3----3-----3-------3--------|----3----3---3----3-----3---3-------|
G:---2--------2---------0---0---0----0--|---2--------2---------0---0---0----0-----|---2--------2---------0---0---------|
D:--0--------3---------0-------2--------|--0--------3---------0-------2-----------|--0--------3---------0--------------|
A:--------------------2-------3---------|--------------------2-------3------------|--------------------2---------------|
D:--------------------------------------|-----------------------------------------|------------------------------------|

Guitar 2:
e:--2---2----0---0----3---3-------------|--2---2----0---0----3---3----------------|--2---2----0---0----3---3---0-------|
B:--3---3----3---3----3---3-------------|--3---3----3---3----3---3----------------|--3---3----3---3----3---3---1-------|
G:--2---2----2---2----0---0-------------|--2---2----2---2----0---0---------0h2p0--|--2---2----2---2----0---0---0-------|
D:--0---0----3---3----0---0------0h2-0--|--0---0----3---3----0---0------0h2-----2-|--0---0----3---3----0---0---2-------|
A:--------------------2---2---2h3-------|--------------------2---2---2h3----------|--------------------2---2---3-------|
E:--------------------3---3-------------|--------------------3---3----------------|--------------------3---3-----------|



Chorus:
-------
Guitar 1 (right speaker only):
e:--------0-----------------------0---------|----------0-------------------------------|
B:---------0------------------------0-------|------------------------------------------|
G:----------2-------------------------------|------------------------------------------|
D:-----------2------------------------------|------------------------------------------|
A:------------0-----------------------------|------------------------------------------|
D:------------------------------------------|------------------------------------------|

Guitar 2:
e:------------------------------------------|------------------------------------------|
B:--1----1--------1--------3---2------------|--1----1--------1--------3---2------------|
G:--0----2--------0--------0---2------------|--0----2--------0--------0---2------------|
D:--2----2------2--------4-----2------------|--2----2------2--------4-----2------------|
A:--3----0----3------3--5------0------------|--3----0----3------3--5------0------------|
E:------------------------------------------|------------------------------------------|



Solo #1:
--------
Guitar 1:
e:------------------------------------|------------------------------------|
B:------------------------------------|--------------------------------14b-| bend to 15
G:------------------------------------|------------------------------------|
D:------------------------------------|------------------------------------|
A:--9999975-7-5-3-5-2-------22333555--|--99999999/121212121212-14-10-------| NB  it says 12 (5 times)
D:------------------------------------|------------------------------------|

Guitar 2:
e:--2---2---0---0---3---3---0---0-----|--2---2---0---0---3---3-------------|
B:--3---3---3---3---3---3---1---1-----|--3---3---3---3---3---3-------------|
G:--2---2---2---2---0---0---0---0-----|--2---2---2---2---0---0-------------|
D:--0---0---3---3---0---0---2---2-----|--0---0---3---3---0---0------0h2----|
A:------------------2---2---3---3-----|------------------2---2---2h3-------|
E:------------------3---3-------------|------------------3---3-------------|

Guitar 1:
e:------------------------------------|------------------------------------|
B:------------------------------------|------------------------------------|
G:------------------------------------|------------------------------------|
D:------------------------------------|------------------------------------|
A:--9999975-7-5-3-5-2-------22333555--|--99999999/121212121212-14-10--10-3-|
D:------------------------------------|------------------------------------|

Guitar 2:
e:--2---2---0---0---3---3---0---0-----|--2---2---0---0---3---3---0---------|
B:--3---3---3---3---3---3---1---1-----|--3---3---3---3---3---3---1---------|
G:--2---2---2---2---0---0---0---0-----|--2---2---2---2---0---0---0---------|
D:--0---0---3---3---0---0---2---2-----|--0---0---3---3---0---0---2---------|
A:------------------2---2---3---3-----|------------------2---2---3---------|
E:------------------3---3-------------|------------------3---3-------------|



Middle Part:
------------
Guitar 1 is silent I think, but is maybe playing the same (watch out for the D tuning).

Guitar 2:
e:------------------------------------------------------------------|
B:------------------------------------------------------------------|
G:--9-9-9-9-9-9-9-9-7-7-7-7-7-7-7-7-6-6-6-6-6-6-6-6-5-5-5-5-5-5-5-5-|
D:--9-9-9-9-9-9-9-9-7-7-7-7-7-7-7-7-6-6-6-6-6-6-6-6-5-5-5-5-5-5-5-5-|
A:--7-7-7-7-7-7-7-7-5-5-5-5-5-5-5-5-4-4-4-4-4-4-4-4-3-3-3-3-3-3-3-3-|
E:------------------------------------------------------------------|

Guitar 2:
e:------------------------------------------------------------------|
B:------------------------------------------------------------------|
G:------------------------------------------------------------------|
D:--5-5-5-5-5-5-5-5-4-4-4-4-4-4-4-4-3-3-3-3-3-3-3-3-3-3-3-3-3-3-3-3-|
A:--5-5-5-5-5-5-5-5-4-4-4-4-4-4-4-4-3-3-3-3-3-3-3-3-3-3-3-3-3-3-3-3-|
E:--3-3-3-3-3-3-3-3-2-2-2-2-2-2-2-2-1-1-1-1-1-1-1-1-1-1-1-1-1-1-1-1-|



Verse 4:
--------
Guitar 1:
E:------0--------0----------------------|------0--------0-------------------------|------0--------0------------0-------|
B:----3----3---3----3-----3-------3-----|----3----3---3----3-----3-------3--------|----3----3---3----3-----3---3-------|
G:---2--------2---------0---0---0----0--|---2--------2---------0---0---0----0-----|---2--------2---------0---0---------|
D:--0--------3---------0-------2--------|--0--------3---------0-------2-----------|--0--------3---------0--------------|
A:--------------------2-------3---------|--------------------2-------3------------|--------------------2---------------|
D:--------------------------------------|-----------------------------------------|------------------------------------|

Guitar 2:
e:--2---2----0---0----3---3-------------|--2---2----0---0----3---3----------------|--2---2----0---0----3---3---0-------|
B:--3---3----3---3----3---3-------------|--3---3----3---3----3---3----------------|--3---3----3---3----3---3---1-------|
G:--2---2----2---2----0---0-------------|--2---2----2---2----0---0---------0h2p0--|--2---2----2---2----0---0---0-------|
D:--0---0----3---3----0---0------0h2-0--|--0---0----3---3----0---0------0h2-----2-|--0---0----3---3----0---0---2-------|
A:--------------------2---2---2h3-------|--------------------2---2---2h3----------|--------------------2---2---3-------|
D:--------------------3---3-------------|--------------------3---3----------------|--------------------3---3-----------|



Chorus:
-------
Guitar 1 (right speaker only):
e:--------0---------------------------------|------------------------------------------|
B:---------0--------------------------------|------------------------------------------|
G:----------2--------------------2p0-0-2----|------------------------------------------|
D:------------------------------------------|------------------------------------------|
A:------------------------------------------|------------------------------------------|
E:------------------------------------------|------------------------------------------|

Guitar 2:
E:------------------------------------------|------------------------------------------|
B:--1----1--------1--------3---2------------|--1----1--------1--------3---2------------|
G:--0----2--------0--------0---2------------|--0----2--------0--------0---2------------|
D:--2----2------2--------4-----2------------|--2----2------2--------4-----2------------|
A:--3----0----3------3--5------0------------|--3----0----3------3--5------0------------|
E:------------------------------------------|------------------------------------------|



Solo #2:
--------
Guitar 1:
e:----------------------------------------------|----------------------------------------------|
B:----------------------------------------------|----------------------------------------------|
G:----------------------------------------------|----------------------------------------------|
D:----------------------------------------------|----------------------------------------------| x2
A:--99999999-1010101010101010-88888888-77777777-|--99999999-1010101010101010-33333333-33333333-|
D:----------------------------------------------|----------------------------------------------|

Guitar 2 (the spaces should be equal but wanted the rythm to match vertically between the two guitars):
e:--2---2----0-------0--------3---3----0---0----|--2---2----0-------0--------3---3----0---0----|
B:--3---3----3-------3--------3---3----1---1----|--3---3----3-------3--------3---3----1---1----|
G:--2---2----2-------2--------0---0----0---0----|--2---2----2-------2--------0---0----0---0----|
D:--0---0----3-------3--------0---0----2---2----|--0---0----3-------3--------0---0----2---2----| x2
A:----------------------------2---2----3---3----|----------------------------2---2----3---3----|
E:----------------------------3---3-------------|----------------------------3---3-------------|



Outro:
------
Guitar 1 (right speaker only):
e:------0-------0---------------------|------------------------------------|
B:------3-------3---------------------|--3---------------------------------|
G:----2-------2---------0---------0---|--2---------------------------------|
D:--0-----0-3-----3---0---------0---2-|--0---0-------0---------------------|
A:------------------2-----2-2h3-------|----0---0---2-----------------------|
D:------------------------------------|----------3-----3-0-----------------|

Guitar 2:
e:--2--
B:--3--
G:--2--
D:--0--
A:-----
E:-----



Lyrics:
-------

[Verse 1:]
My friends are so depressed
I feel the question of your loneliness
Confide 'cause I'll be on your side
You know I will, you know I will

[Verse 2:]
Ex-girlfriend called me up
Alone and desperate on the prison phone
They want to give her seven years
For being sad

[Chorus:]
I love all of you
Hurt by the cold
So hard and lonely too
When you don't know yourself

[Verse 3:]
My friends are so distressed
And standing on the brink of emptiness
No words I know of to express
This emptiness

[Chorus:]
I love all of you
Hurt by the cold
So hard and lonely too
When you don't know yourself

[Solo #1]

[Middle part:]
Imagine me taught by tragedy
Release in peace

[Verse 4:]
I heard a little girl
And what she said was something beautiful
To give your love no matter what
Is what she said

[Chorus:]
I love all of you
Hurt by the cold
So hard and lonely too
When you don't know yourself

[Solo #2]

[Outro]



Добавлено: 10.09.2013
Другие материалы по этой песне:
  • Аккорды и текст

Страница создана 10.09.2013
http://primanota.ru/red-hot-chili-peppers/my-friends-two-guitars-chords.htm
Привет, Гость.
Предлагаем пройти революционный курс по гитаре.
Подарок от PrimaNota.Ru, забирай!