PrimaNota.ru - самый крупный в мире бесплатный архив песенных текстов, аккордов, табулатур и нот


Red Hot Chili Peppers - Lately - аккорды и текст, таба, бас-таба, видео

Регистрация Запомнить меня
Войти через:  Facebook Google Twitter Vk Yandex Mail.ru

Red Hot Chili Peppers - Lately - аккорды и текст, таба, бас-таба, видео

Печатать
Просмотров: 283
Lately
Red Hot Chili Peppers
-----------------------------------------------------------------------------
                             Lately - Red Hot Chili Peppers
-----------------------------------------------------------------------------

Tabbed by: Pete
Email: pegreen_888@hotmail.com

This is a B-Side song from the Red Hot Chili Peppers.

Tuning: eBGDAE
Tempo: 86 BPM

Tab:

Verse.
  
(Varies slightly throughout)
 
  Am           C    G       F      Am
   D    D  U   D    D  U    U  D    D    D  U
e|-------------3----3--3----x--1----0----x--x--|
B|-1----x--x---1----0--0----x--1----1----x--x--|
G|-2----x--x---0----0--0----x--2----2----x--x--|
D|-2----x--x---2----0--0----x--3----2----x--x--|
A|-0----x--x---3----2--2----x--3----0----x--x--|
E|------------------3--3----x--1---------------|

Chorus.

(Varies slightly throughout)

   Dm                F                   Am                              C
   D    D    D  U    U  D    D    D  U    D    D    D      U D U D    D  U
e|-0h1--1----0--0-----------------------|-----------0--------------------0--|
B|-3----3----3--3----x--1----1----x--x--|-1p0--1p0--1------0-1-0-1----x--1--|
G|-2----2----2--2----x--2----2----x--x--|-2----2----2------2-2-2-2----x--0--|
D|-0----0----0--0----x--3----3----x--x--|-2----2----2------2-2-2-2----x--2--|
A|-------------------x--3----3----x--x--|-0----0----0------0-0-0-0----x--3--|
E|-------------------x--1----1----x--x--|-----------------------------------|
 
From 2nd time start with:

    D
e|--x----
B|--3----
G|--2----
D|--0----
A|------
E|------

Bridge.

(Varies slightly throughout)

    E                               D5  C/E
    D    D    D    D  U    U  D  U  D    D
e|--0----0----0----0--0----0--0--0----------|
B|--0----0----0----0--0----0--0--0--3----1--|
G|--1----1----1----1--1----1--1--1--2----0--|
D|--2----2----2----2--2----2--2--2--0----2--|
A|--2----2----2----2--2----2--2--2----------|
E|--0----0----0----0--0----0--0--0----------|

    F                       C           A
    D    D  U  D    D  U    U D U D U D U
e|----------------------------------------|
B|--1----1--1--1----1--1----1-1-1-1-1-1-2-|
G|--2----2--2--2----2--2----0-0-0-0-0-0-2-|
D|--3----3--3--3----3--3----2-2-2-2-2-2-2-|
A|--3----3--3--3----3--3----3-3-3-3-3-3-0-|
E|--1----1--1--1----1--1------------------|

    A                                 Dm   C/E
    D          D    D  U    U    U    D     D   U 
e|------------------------------------1------------|
B|--2----------2----2--2----2----2----3-----1---1--|
G|--2----------2----2--2----2----2----2-----0---0--|
D|--2----------2----2--2----2----2----0-----2---2--|
A|--0----------0----0--0----0----0-----------------|
E|-------------------------------------------------|


| /  slide up
| \  slide down
| h  hammer-on
| p  pull-off
| ~  vibrato
| +  harmonic
| x  Mute note
=============================================================================
Добавлено: 29.05.2012
Другие материалы по этой песне:

Страница создана 19.05.2012
http://primanota.ru/red-hot-chili-peppers/lately-chords.htm
Привет, Гость.
Предлагаем пройти революционный курс по гитаре.
Подарок от PrimaNota.Ru, забирай!