PrimaNota.ru - самый крупный в мире бесплатный архив песенных текстов, аккордов, табулатур и нот


Red Hot Chili Peppers - Instrumental 1 - таба, видео

Регистрация Запомнить меня
Войти через:  Facebook Google Twitter Vk Yandex Mail.ru

Red Hot Chili Peppers - Instrumental 1 - таба, видео

Печатать
Просмотров: 99
Instramental #1
Red Hot Chili Peppers
Scar Tissue Single
Written by: RHCP
Transcribed by: Scott Sloane
                 scott_your_daddy@yahoo.com>
Standard Tuning


| --------|------ ---|1210-8\--|---1\3--- |
| 10------|1312-9\10-|------ -6|---- ---- | 
|.--------|------ ---|------ --|---- ----.| 
|.--------|------ ---|------ --|---- ----.| 
| --------|------ ---|------ --|---- -----|
| --------|------ ---|------ --|---- -----|

|--------| 12121212|\15151515|12------ |
|10------| 13131313|\17171717|13------ |
|--------|.--------| --------|--------.|
|--------|.--------| --------|--------.|
|--------| --------| --------|-------- |
|--------| --------| --------|-------- |

|------ ---|------ ---|1210-8--|---1\3---|--------|------ ---|---------|
|1312-9\10-|13---9\10-|-------6|---- ----|10------|1312-9\10-|1312--10-|
|------ ---|------ ---|--------|---- ----|-----9--|------ ---|---------|
|------ ---|------ ---|--------|---- ----|--------|------ ---|---------|
|------ ---|------ ---|--------|---- ----|--------|------ ---|---------|
|------ ---|------ ---|--------|---- ----|--------|------ ---|---------|

|1210-8--|---1\3---|-------5| 12121212|\15151515|12------ |
|-------6|---- ----|-----5--| 13131313|\17171717|13------ |
|--------|---- ---2|--------|.--------| --------|--------.|
|--------|---- ----|--------|.--------| --------|--------.|
|--------|---- ----|--------| --------| --------|-------- |
|--------|---- ----|--------| --------| --------|-------- |

|------ ---|1210-8\--|---1\3---|--------|
|1312-9\10-|------ -6|---- ----|10------|
|------ ---|------ --|---- ----|--------|
|------ ---|------ --|---- ----|--------|
|------ ---|------ --|---- ----|--------|
|------ ---|------ --|---- ----|--------|

I understand that the timing of this might be off.  If
you would like to update it please give me credit for
any thing you take from this document.
     
Добавлено: 31.07.2013
Другие материалы по этой песне:

Страница создана 04.03.2012
http://primanota.ru/red-hot-chili-peppers/instrumental-1-chords.htm
Привет, Гость.
Предлагаем пройти революционный курс по гитаре.
Подарок от PrimaNota.Ru, забирай!