PrimaNota.ru - самый крупный в мире бесплатный архив песенных текстов, аккордов, табулатур и нот


Red Hot Chili Peppers - Greatest Hits - таба, бас-таба, видео

Регистрация Запомнить меня
Войти через:  Facebook Google Twitter Vk Yandex Mail.ru

Red Hot Chili Peppers - Greatest Hits - таба, бас-таба, видео

Печатать
Просмотров: 102
Author/Artist: Red Hot Chili Peppers
Title: Greatest Hits Album


p pull off
P pluck
h hammer on
/ slide up
\ slide down
b bend
r release bend
v vibrato
|-| repeat previous bar




Under The Bridge
Standard Tuning


-|----------------------------------------------------------------------------|
-|-3-------3-----------2-------------------3-----------3h5p3------------------|
-|-----2-----2-----------------3-------------------2---------2-x---x----------|
-|---4---4-----------------4-----4-4-2---------4-----4---------4/6-6\-----4---|
-|-5-----------4-2-------4---x---------5-2-4h5---5-------------5/7-7\---4---4-|
-|-----------------5-4-2----------------------------------------------2-------|
  Intro                                                                 Pl

------------------------------------------------------------------------------|
-------------3-----------3-----------2-------------------3-----------3h5p3----|
-3-------------------2-----2-----------------3-------------------2---------2--|
---4-4-2---------4-----4-----------------4-----4-4-2---------4-----4----------|
---------5-2-4h5---5---------4-2-------4---x---------5-2-4h5---5--------------|
---------------------------------5-4-2----------------------------------------|


---------------------------------|--------------------------------------------|
---------------------------------|--------------------------------------------|
-x--------------3-------3--------|--------------------------------------------|
-4/6-6------4------4------4------|--------------------------------------------|
-5/7--\---4---4------4------4/7--|--------------------------------------------|
--------2------------------------|--------------------------------------------|

----|-------------------------------------------------------------------------|
----|-9---x------------9-----------9------------------9---------------------9-|
----|-9---x-x---x-x----11--4---6---9---11---9----6----9---11---9----4---6---9-|
----|-9---x-9---x-9/11-11--6---7---9---9----11---7----9---9----11---6---7---9-|
----|-------9---x-9/11-----6---7-------9----11---7--------9----11---6---7-----|
----|-------------------------------------------------------------------------|


-----------------------------|------------------------------------------------|
--------------------9--------|------------------------------------------------|
---11----9----6--x--8---8vv--|------------------------------------------------|
---9-----11---7--x--9--------|------------------------------------------------|
---9-----11---7--x-----------|------------------------------------------------|
-----------------------------|------------------------------------------------|


----|-----------------------------------------------5h7p5---|-----------------|
----|----9------------------------------------------------5-|-----------------|
----|-9--9--11--9--8-8h9p8---8-x----9--9--9---4--6----------|-----------------|
----|-9--9--9---9----------9---9/11-11-11-11--6--7----------|-----------------|
----|-7-----9---9--------------9/11-11-11-11--6--7----------|-----------------|
----|-------------------------------------------------------|-----------------|
    Verse

----|---------------------------------------------5---------|-----------------|
----|----9-------------------------------------------5------|-----------------|
----|-9--9--11--9--8-8h9p8---8-x----9--9--9----6--------6---|-----------------|
----|-9--9--9---9----------9---9/11-11-11-11---7------------|-----------------|
----|-7-----9---9--------------9/11-11-11-11---7------------|-----------------|
----|-------------------------------------------------------|-----------------|


----|--------|---------------------11-11-11-11-------9--9--9--|---------------|
----|-9------|---------------------12-12-12-12--10---10-10-10-|---------------|
----|-8--vv--|-x----11---9-9---9---x--x--x--x---11---11-11-11-|---------------|
----|-9------|-x----11---9-9---9----------------11------------|---------------|
----|--------|-x----9----7-7---7------------------------------|---------------|
----|--------|------------------------------------------------|---------------|
     Chorus

----|----------------------11-11-11-11-------9--9--9--|--|--------------------|
----|----------------------12-12-12-12--10---10-10-10-|--|--------------------|
----|-x-x-x-11---9-9---9---x--x--x--x---11---11-11-11-|--|--------------------|
----|-x-x-x-11---9-9---9----------------11------------|--|--------------------|
----|-x-x-x-9----7-7---7------------------------------|--|--------------------|
----|-------------------------------------------------|--|--------------------|


----|-0----0----0---0---0---------0------|------------------------------------|
----|-5----5----3---3---0---0-0h1---1----|------------------------------------|
----|-6----5----4---4---2-------------2--|------------------------------------|
----|------------------------------------|------------------------------------|
----|------------------------------------|------------------------------------|
----|------------------------------------|------------------------------------|
     Bridge

----|-12-12-12-12-|--|-10-10-10-10-|--|-x--x--x--x--|--|----------------------|
----|-10-10-10-10-|--|-9--9--9--9--|--|-12-12-12-12-|--|----------------------|
----|-10-10-10-10-|--|-9--9--9--9--|--|-12-12-12-12-|--|----------------------|
----|-x--x--x--x--|4x|-x--x--x--x--|2x|-12-12-12-12-|2x|----------------------|
----|-x--x--x--x--|--|-x--x--x--x--|--|-x--x--x--x--|--|----------------------|
----|-x--x--x--x--|--|-x--x--x--x--|--|-x--x--x--x--|--|----------------------|



------|-0--0-0-0--0----0--0--0-0-0----0-0-0---------0------0----0-0--0----0-0-|
------|-5--5-5-5--5----5--5--5-5-3----3-3-0--0-0h1----1----5----5-5--5----5-5-|
------|-6--6-6-6--5----5—-5--5-5-4----4-4-2-------------2--6----6-6--5----5-5-|
------|-----------------------------------------------------------------------|
------|-----------------------------------------------------------------------|
------|-----------------------------------------------------------------------|
      Outro



--0-3p0-0-0---0-0--0--0-0----------0----0--0--0---0-0--3p0----0----0-0--0--0-0-|
--5-------3---3-3--0--1-1-1h3p1----5----5--5--5---5-5---------3----3-3--0------|
--5-------4---4-4--2--2-2-------2--6----6--6--5---5-5------5--4----4-4--2------|
-------------------------------------------------------------------------------|
-------------------------------------------------------------------------------|
-------------------------------------------------------------------------------|



---0-----0-0-0----0-0--0---0-0-----------------------0--------0--|------------|
-------------5----5-5--5---5-5-------------0----3\---0---1----5--|------------|
-----2/6-----6----6-6--5---5-5---5h7p5---------------2--------6--|------------|
---------------------------------------7----------------------7--|------------|
--------------------------------------------------------------7--|------------|
--------------------------------------------------------------5--|------------|
                                                              U




Give It Away
Standard Tuning



---|---------11----11-11---11-11---11-11---11-11---11-11-----------11---------|
---|----5-5--8-----8--8----8--8----8--8----8--8----8--8-------5-5--8----------|
---|-6--6-6--11b---11-11b--11-11b--11-11b--11-11b--11-11b--6--6-6--11b--------|
---|-7--7-7------------------------------------------------7--7-7-------------|
---|-0-----------------------------------------------------0------------------|
---|--------------------------------------------------------------------------|
    Intro

------------------------------------|-----------------------------------------|
------------------------------------|-----------------------------------------|
------------------------------------|-----------------------------------------|
-5-5---5-----5----5----5------5-----|-----------------------------------------|
------------------------------------|-----------------------------------------|
-----8---8b----8----8----8--8---8b--|-----------------------------------------|


---|--------------------------------------------------------------------|-----|
---|--------------------------------------------------------------------|-----|
---|-2-5-4-3b-----------2--2-7-8-9--2-2-5-4-3b-----------2--2-7-6-------|-----|
---|-x--------5-5--5-5--------------x-x--------5-5--5-5-----------5-5-5-|-----|
---|-0------------------------------0-0---------------------------------|-----|
---|--------------------------------------------------------------------|-----|
    Verse

---|---------|--|-8-8-5--5-5-|---------|--|-5-5-5-5-5-5-5-5--|----------------|
---|---------|--|-8-8-x--5-5-|---------|--|-5-5-5-5-5-5-5-5--|----------------|
---|-2-2-2-2-|--|-5-5-2--2-2-|-2-2-2-2-|--|-7b7b7b7b7b7b7b7b-|----------------|
---|-x-x-x-x-|6x|------------|-x-x-x-x-|6x|------------------|----------------|
---|-0-0-0-0-|--|------------|-0-0-0-0-|--|------------------|----------------|
---|---------|--|------------|---------|--|------------------|----------------|
    Chorus             m

-----------|---------------------------------|--------------------------------|
-----------|---------------------------------|--------------------------------|
-----------|-9-9-9-9-9-9-9-9-9-9-9-9-9-9-9-9-|--------------------------------|
-----------|-x-x-x-x-x-x-x-x-x-x-x-x-x-x-x-x-|--------------------------------|
-----------|-7-7-7-7-7-7-7-7-7-7-7-7-7-7-7-7-|--------------------------------|
-----------|-0-0-0-0-0-0-0-0-0-0-0-0-0-0-0-0-|--------------------------------|
   Guitar 1  During Solo


-----------|------------------------------------------------------------------|
-----------|------------------------------------------------------------------|
-----------|-11----12-----------------------12----------14---15---14----12----|
-----------|-------------14-----12----14--------------------------------------|
-----------|------------------------------------------------------------------|
-----------|------------------------------------------------------------------|
   1st solo

-------------------------------------------------------------------12---12----|
-----------12-------------------14------12---15-------14----15----------------|
-------14--------15---14------------------------------------------------------|
------------------------------------------------------------------------------|
------------------------------------------------------------------------------|
------------------------------------------------------------------------------|


-------------------------------------------------------------|----------------|
-------------------------------------------------------------|----------------|
----------------------------7b9---------------------r7-------|----------------|
-------------------------------------------------------------|----------------|
-------------------------------------------------------------|----------------|
-------------------------------------------------------------|----------------|


-|-19-19-19-19-18-18-18-18-17-17-17-17-16-16-15-15-14-14-14-13-13-13-12-12-12-|
-|-19-19-19-19-18-18-18-18-17-17-17-17-16-16-15-15-14-14-14-13-13-13-12-12-12-|
-|-19-19-19-19-18-18-18-18-17-17-17-17-16-16-15-15-14-14-14-13-13-13-12-12-12-|
-|----------------------------------------------------------------------------|
-|----------------------------------------------------------------------------|
-|----------------------------------------------------------------------------|
    Guitar 1 plays this during last part of solo

-11-11-10-10-9-9-9-|----------------------------------------------------------|
-11-11-10-10-9-9-9-|----------------------------------------------------------|
-11-11-10-10-9-9-9-|----------------------------------------------------------|
-------------------|----------------------------------------------------------|
-------------------|----------------------------------------------------------|
-------------------|----------------------------------------------------------|


--------|---------------------------------------------------------------------|
--------|---------------------------------------------------------------------|
--------|--------------------12----14b-15--14b15-b16-r15-r14-12b14r12-12b14r--|
--------|-----------12---14---------------------------------------------------|
--------|-10-10/12------------------------------------------------------------|
--------|---------------------------------------------------------------------|
  2nd solo

------------------------------------------------------------------------------|
------------------------------------------------------------------------------|
-12----14-14h16r14-14h16r14-14h16r14-12h14r12-12h14r12-12h14r12---------------|
-----------------------------------------------------------------14-12--12h---|
------------------------------------------------------------------------------|
------------------------------------------------------------------------------|


-------------------------|----------------------------------------------------|
-------------------------|----------------------------------------------------|
-------------------------|----------------------------------------------------|
-14r12-12h14r12-12h14r12-|----------------------------------------------------|
-------------------------|----------------------------------------------------|
-------------------------|----------------------------------------------------|


---|-----------x----x--x-x-x--x-|--|-----------------------------------------|
---|-----------x----x--x-x-x--x-|--|-----------------------------------------|
---|-2--2--x-x-6\7--5--5-5-5--5-|--|-------5-----5-----5-----5-6-6-6-6-6-----|
---|-2--2--x-x-6\7--5--5-5-5--5-|--|-5-5h7---5h7---5h7---5h7---7-7-7-7-7-----|
---|-0--0--x-x-x----x--x-x-x--x-|--|---------------------------0-0-0-0-0-----|
---|-----------x----x--x-x-x--x-|--|-------------------------------------5vv-|
    Outro Riff




Californication
Standard Tuning



---|------------------------------------|--|-----0-----------------------1---|
---|-----0-1----------------------------|--|-----------------------------3---|
---|-------------------------0-2--------|--|---------------------------2-2---|
---|---2------2-0h2p0-------------0-----|--|---2---2-----0-----------0-------|
---|-0----------------3----3---------3--|--|-3---------5---5---3---3---------|
---|---------------------1--------------|--|---------3-------1---1-----------|
    Intro/Verse                             Verse Out                     m

---|---------|--|-0--0--------1--1--0--0--0--0--------1--1--1-1-1-1--1--1--|--|
---|-1---1---|--|-1--1--3--3--3--3--1--1--1--1--3--3--3--3--3-3-3-3--3--3--|--|
---|-2---2---|--|-0--0--0--0--2--2--2--2--0--0--0--0--2--2--2-2-2-2--2--2--|--|
---|-2---3---|--|-------0--0--------------------0--0-----------------------|--|
---|---------|--|----------------------------------------------------------|--|
---|---------|--|----------------------------------------------------------|--|
  Bridge Strum    Chorus




Scar Tissue
Standard Tuning



----|------------------------------------------------------------|------------|
----|----10----10---10---10--------------------------------------|------------|
----|-----------------------9--9/10--10-----10----10-----10p9-9--|------------|
----|------------------------------------------------------------|------------|
----|-8------8----8----8-----------------------------------------|------------|
----|-----------------------8--8/10------10----10----10----------|------------|
     Verse/Intro

----|-----------------------------------------------|-------------------------|
----|----10----10---10---10--8----------------------|-------------------------|
----|--------------------10----9/10---12p10-12p10---|-------------------------|
----|-----------------------------------------------|-------------------------|
----|-8------8----8----8----------------------------|-------------------------|
----|--------------------------8/10-----------------|-------------------------|
     Intro Out           P

----|------------------10-----------------------|-----------------------------|
----|----10----10--10-----8-8/10--10--10-8------|-----------------------------|
----|--------------------------------------10-9-|-----------------------------|
----|-------------------------------------------|-----------------------------|
----|-8------8----------------------------------|-----------------------------|
----|---------------------8-8/10----------------|-----------------------------|
     Verse 1 End

----|-------------------------------------------------------|--|--------------|
----|-------------------------------------------------------|--|--------------|
----|-10--10-10--10-10--10--9---10--10-10--10-10--10-10--9--|--|--------------|
----|-7---7--7---7--7---7---10--12--12-12--12-12--12-12--10-|--|--------------|
----|-8---8--8---8--8---8---10--12--12-12--12-12--12-12--10-|--|--------------|
----|-------------------------------------------------------|--|--------------|
     Chorus

----|------------------10-8-------------13-12-10-8-|--------------------------|
----|----10----10--10-------8-8/10--10-------------|--------------------------|
----|----------------------------------------------|--------------------------|
----|----------------------------------------------|--------------------------|
----|-8------8-------------------------------------|--------------------------|
----|-----------------------8-8/10-----------------|--------------------------|
     Verse 2 End

----|------------------------------------------------------------------------|
----|-13/-10--10----\----10/8--8---------8/10--10------10/-12--12/-13--13----|
----|------------------------------------------------------------------------|
----|------------------------------------------------------------------------|
----|------------------------------------------------------------------------|
----|------------------------------------------------------------------------|
      first solo

----|------------------8----------------7-8-7----|----------------------------|
----|----10----10--10-----8-8-8/10--10--8-8-8-10-|----------------------------|
----|-----------------------------------------10-|----------------------------|
----|--------------------------------------------|----------------------------|
----|-8------8-----------------------------------|----------------------------|
----|-------------------------8/10---------------|----------------------------|
      Verse 3 End                       P P P P


|--------------------------|
|-13/15-------15\13-13\-10-|
|--------------------------|
|--------------------------|
|--------------------------|
|--------------------------|
second solo

------------------------------------------------------------------------------|
---------10/8--8--------13/-10-----------------13/15-----------17--13/10-10---|
------------------------------------------------------------------------------|
------------------------------------------------------------------------------|
------------------------------------------------------------------------------|
------------------------------------------------------------------------------|


---------------------------------------------------------------------------|--|
--------10/13\8--8----------13\-10------------15/17-17\18--18vvvvvvvvvvvvv-|--|
---------------------------------------------------------------------------|--|
---------------------------------------------------------------------------|--|
---------------------------------------------------------------------------|--|
---------------------------------------------------------------------------|--|


-|----------------------------------------------------------------------------|
-|-20/22--------22\20--20vvvvvvvvv--20/22\17--17vvvvvvvvvv--17/18\15-----/13--|
-|----------------------------------------------------------------------------|
-|----------------------------------------------------------------------------|
-|----------------------------------------------------------------------------|
-|----------------------------------------------------------------------------|
   third solo

------------------------------------------------------------------------------|
--13/15-15\13--13/15--15-------15\13--13\10-------------10/13\---8------10/13-|
------------------------------------------------------------------------------|
------------------------------------------------------------------------------|
------------------------------------------------------------------------------|
------------------------------------------------------------------------------|


------------------------------------------------------------------------------|
-\----10----------------------------------------------------------------------|
-----------------------/14-----------14----14---14----------------------------|
-------------12/14\12-------------------------------12/14-\12--12/14\-10-10---|
------------------------------------------------------------------------------|
------------------------------------------------------------------------------|


------------------------------------------------------------------------------|
------------------------------------18/17-17----12/13\12/15----\10------/13\--|
------------------------------------------------------------------------------|
---10/12----------------/14---------------------------------------------------|
----------12---------/--------------------------------------------------------|
------------------------------------------------------------------------------|


--------------------|---------------------------------------------------------|
-10\8----/10vvvvvv--|---------------------------------------------------------|
--------------------|---------------------------------------------------------|
--------------------|---------------------------------------------------------|
--------------------|---------------------------------------------------------|
--------------------|---------------------------------------------------------|




Soul To Squeeze
Standard Tuning


-------|----------------------------------------------------------------------|
-------|-----------------------------------------------5----------------------|
-------|-------2----5\4-2---------2-------2------2-4/6---6p4-------2----5\4-2-|
-------|----2-----------------2h4------2-------2----------------2-------------|
-------|-0--------0-------0-0-------0--------0---------------0--------0-------|
-------|----------------------------------------------------------------------|
         Intro

------------------------------------------------------------------------------|
------------------------------------------------------------------------------|
---------2-------2------------------------2----5\4-2---------2-------2------2-|
-----2h4------2-------2---2----2-------2-----------------2h4------2-------2---|
-0-0-------0--------0---0-----------0--------0-------0-0-------0--------0-----|
----------------------------3b---3b-------------------------------------------|


-----5-----------------------------------------------------------------|------|
------------------------------------------------2--2-2-2-2-2-2-2-2-2-2-|------|
-4/6---4h6p4-------2----5\4-2---------2-2-2-2-2-2--2-2-2-2-2-2-2-2-2-2-|------|
----------------2-----------------2h4---2-2-2-2-2--2-2-2-2-2-2-2-2-2-2-|------|
-------------0--------0-------0-0-------0-0-0-0------------------------|------|
-----------------------------------------------------------------------|------|


-------|-----------------------------------------------------------------------|
-------|-----------------------------------------------------------------------|
-------|--12/14----12/14----17/19--19\17--14--17--14-\-10-\9-/10-/14---12/14---|
-------|-----------------------------------------------------------------------|
-------|-----------------------------------------------------------------------|
-------|-----------------------------------------------------------------------|
        Guitar 1

-------------------------------------------------|----------------------------|
-13----13----------------------------------------|----------------------------|
----14----14-vvv-17/19-vvv-17/19-vv-\-17-vv-14-\-|----------------------------|
-------------------------------------------------|----------------------------|
-------------------------------------------------|----------------------------|
-------------------------------------------------|----------------------------|


-|----------------------------------------------------------------------------|
-|---------------10-------------8---------------------------------------------|
-|-------x-10-10-10--------x-9--9-----------x-10-10-10-7---10-----------------|
-|-------x-10-10-10-x---x--x-10-10-x----x---x-12-12-12-x---12--12-12-12-12-12-|
-|-------x-x--x-----x---x--x-x-----x----x---x-x--x--x--x---x---x--x--x--x--x--|
-|-3--1-------------6/8-8----------8/10-10---------------------10-10-10-10-10-|
   Guitar 2

----------------------------------------------0-0-0-0-0-----------------------|
----------------------------------------------6-6-6-6-6---------------10------|
----------------------------------------------7-7-7-7-7-------x-10-10-10------|
-12-x--x--x--x--x--x--x-x-x-x-x-x-x---x-x-x-x-----------x-x---x-10-10-10-x----|
-x--x--x--x--x--x--x--x-x-x-x-x-x-x---x-x-x-x-----------x-x---x-x--x-----x----|
-10-13-13-13-13-13-13-x-x-x-x-x-x-x---x-x-x-x-----------x-x-1------------6/8--|
                      C5              A#5

------------------------------------------------------------------------------|
--------8---------------------------------------------------------------------|
---x-9--9----------x-10-10h12p10-----7---10-----------------------------------|
-x-x-10-10-x----x--x-------------x---x---12--12-12-12-12-12-12-x--x--x--x--x--|
-x-x-x-----x----x--x-------------x---x---x---x--x--x--x--x--x--x--x--x--x--x--|
-8---------8/10-10---------------6-----------10-10-10-10-10-10/13-13-13-13-13-|


-------------------------|----------------------------------------------------|
----------10---------6---|----------------------------------------------------|
-------------9-------7---|----------------------------------------------------|
-x--x-x-x------10----x---|----------------------------------------------------|
-x--x-x-x----------------|----------------------------------------------------|
-13-x-x-x----------------|----------------------------------------------------|


-|------------------------------------------------------------------------|---|
-|------------------------------------------------------------------------|---|
-|------------------------------------------------------------------------|---|
-|-------------------------------8-----------------------10---------------|---|
-|---------------------------------------------8--------------------------|---|
-|-1-1-1h5-8-8--8h10-10-13-13-6-----10-10-5-10---10-5-8------6--5h6h8p6p5-|---|
  Bass Verse


---------|--------------------------------------------------------------------|
---------|------------10--------------8---------------------------------------|
---------|----x-10-10-10---------x-9--9-----------x-10-10-10-7---10-----------|
---------|-10-x-10-10-10--x---x--x-10-10-x----x---x-12-12-12-x---12--12-12-12-|
---------|-x--x--x-x------x---x--x-x-----x----x---x-x--x--x--x---x---x--x--x--|
---------|-13-------------6/8-8----------8/10-10---------------------10-10-10-|
          Guitar 2 Verse

----------------------------------------------------0-0-0-0-0-----------------|
----------------------------------------------------6-6-6-6-6-----------------|
----------------------------------------------------7-7-7-7-7--------x-10-10--|
-12-12-12-x--x--x--x--x--x--x-x-x-x-x-x-x---x-x-x-x-----------x-x-10-x-10-10--|
-x--x--x--x--x--x--x--x--x--x-x-x-x-x-x-x---x-x-x-x-----------x-x-x--x--x-x---|
-10-10-10-13-13-13-13-13-13-x-x-x-x-x-x-x---x-x-x-x-----------x-x-13----------|


------------------------------------------------------------------------------|
-10-------------8-------------------------------------------------------------|
-10--------x-9--9-----------x-----------------7---10--------------------------|
-10-x---x--x-10-10-x----x---x-10-10h12p10-x---x---12--12-12-12-12-12-12-x--x--|
----x---x--x-x-----x----x---x-------------x---x---x---x--x--x--x--x--x--x--x--|
----6/8-8----------8/10-10----------------6-----------10-10-10-10-10-10-13-13-|


-------------------------------------0-0-0-0-0-|------------------------------|
-------------------------------------6-6-6-6-6-|------------------------------|
-------------------------------------7-7-7-7-7-|------------------------------|
-x--x--x--x--x-x-x-x-x-x-x---x-x-x-x-----------|------------------------------|
-x--x--x--x--x-x-x-x-x-x-x---x-x-x-x-----------|------------------------------|
-13-13-13-13-x-x-x-x-x-x-x---x-x-x-x-----------|------------------------------|



--|------------------------------------------------------------------------|--|
--|------13---10----------------x-10--10--10--10--10--10--10--x--10--x-x-6-|--|
--|------9----9----10-------9---x-9---9---9---9---9---9---9---x--10--x-x-7-|--|
--|-10---10---12---12--x----10--x-12--12--12--12--12--12--12--x--12--x-x-x-|--|
--|-x--------------12--x----x----------------------------------------------|--|
--|-13-----------------13--------------------------------------------------|--|
   Chorus

-------|----------------------------------------------------------------------|
-------|----------------------------------------------------------------------|
-------|-14\12-10--12-/14--10---12/14-14-14-17--14--10/12--10--7--10--14/12---|
-------|----------------------------------------------------------------------|
-------|----------------------------------------------------------------------|
-------|----------------------------------------------------------------------|
         Solo

------------------------------------------------------------------|-----------|
------------------------------------------------------------------|-----------|
-10--12/14--10/12-\10--7---12/14-14-14-17b18r17-14-12/14-12-10-9--|-----------|
------------------------------------------------------------------|-----------|
------------------------------------------------------------------|-----------|
------------------------------------------------------------------|-----------|



-------|---------10-----------------------------------------|--|--------------|
-------|-----10--8-------------------1---------1------------|--|--------------|
-------|-----10--9-----------0-0-0h2-----0-0h2----2-2-0-0-0-|--|--------------|
-------|-12--12------10--10--0-0-0h2-----0-0h2----2-2-0-0-0-|2x|--------------|
-------|-x-----------x---x---0-0-0-------0-0------0-0-0-0-0-|--|--------------|
-------|-10----------8---8----------------------------------|--|--------------|
   Basic Rhythm of Bridge

-------|---------8-----------------------------------------|------------------|
-------|-----10--8------------------1---------1------------|------------------|
-------|-----10--9----------0-0-0h2-----0-0h2----2-2-0-0-0-|------------------|
-------|-12--12-----10--10--0-0-0h2-----0-0h2----2-2-0-0-0-|------------------|
-------|-x----------x---x---0-0-0-------0-0------0-0-0-0-0-|------------------|
-------|-10---------8---8----------------------------------|------------------|



-------|---------10---------10---8----8----|----------------------------------|
-------|-----10--8----------8----6----6----|----------------------------------|
-------|-----10--9----------9----7----7----|----------------------------------|
-------|-12--12-----10--10-----------------|----------------------------------|
-------|-x----------x---x------------------|----------------------------------|
-------|-10---------8---8------------------|----------------------------------|



-----|------------------------------------------------------------------------|
-----|-----10----------10---------10----10------8-----------8-----------8-----|
-----|-10--10--x-x-10--10--x-x-10-10-10-10--9---9---x-x-9---9---x-x-9---9---x-|
-----|-10--10--x-x-10--10--x-x-10-10-10-10--10--10--x-x-10--10--x-x-10--10--x-|
-----|-12------x-x-12------x-x-12----12-----10------x-x-10------x-x-10------x-|
-----|------------------------------------------------------------------------|
       Chorus Out


------------------------------------------------------------------------------|
------8-----8-------10----------10---------10----10-----6---------6--------6--|
-x-9--9--9--9---10--10--x-x-10--10--x-x-10-10-10-10--7--7--x-x-7--7--x-x-7-7--|
-x-10-10-10-10--12--12--x-x-12--12--x-x-12-12-12-12--8--8--x-x-8--8--x-x-8-8--|
-x-10----10-----12------x-x-12------x-x-12----12-----8-----x-x-8-----x-x-8----|
------------------------------------------------------------------------------|


------------------------------------------------------------------------------|
---6------10----------10---------10----10------8-----------8-----------8------|
-7-7--10--10--x-x-10--10--x-x-10-10-10-10--9---9---x-x-9---9---x-x-9---9---x--|
-8-8--10--10--x-x-10--10--x-x-10-10-10-10--10--10--x-x-10--10--x-x-10--10--x--|
-8----12------x-x-12------x-x-12----12-----10------x-x-10------x-x-10------x--|
------------------------------------------------------------------------------|


---------------------------------------------------------|--|----|------------|
------8-----8-------10----10----10----10---x-10--x-x-6---|--|----|------------|
-x-9--9--9--9---9---9-----9-----9-----9----x-10--x-x-7---|--|----|------------|
-x-10-10-10-10--12--12----12----12----12---x-12--x-x-8---|2x|----|------------|
-x-10----10-----12---------------------------------------|--|----|------------|
---------------------------------------------------------|--|-13-|------------|





Otherside
Standard Tuning



---|------------------------------------|-------------------------------------|
---|------------------------------------|-------------------------------------|
---|------------------------------------|-------------------------------------|
---|-2--2--2--7--7--9-7-5-2----0--0--0--|-------------------------------------|
---|------------------------------------|-------------------------------------|
---|------------------------------------|-------------------------------------|
    Intro

---|------------------------------------------|--|----------------------------|
---|------------------------------------------|--|----------------------------|
---|------------------------------------------|--|----------------------------|
---|-2--2--2--7--7--9-7-5-2--2--2-2--0--0--0--|2x|----------------------------|
---|------------------------------------------|--|----------------------------|
---|------------------------------------------|--|----------------------------|
    Chorus

---|------------------------------------------|-------------------------------|
---|------------------------------------------|-------------------------------|
---|------------------------------------------|-------------------------------|
---|-2--2--2--7--7--7--14--14--14-------------|-------------------------------|
---|-------------------------------14---14-14-|-------------------------------|
---|------------------------------------------|-------------------------------|
    Chorus Out

---|------8------------------15----------|---------|
---|----5---------------12---------------|---------|
---|-------------------------------------|---------|
---|-------------------------------------|---------|
---|-0--------0-0------------------------|---------|
---|--------------5/-12----------12-12-\-|---------|
    Verse     Bass



---|------------|--|-------------------------------|--------------------------|
---|------------|--|-------------------------------|--------------------------|
---|-0-----2----|--|-------------------------------|--------------------------|
---|-0-----2----|--|-14--14--14-/-17--17--17--17-\-|--------------------------|
---|-2-----0----|--|-------------------------------|--------------------------|
---|------------|--|-------------------------------|--------------------------|
    Verse Out        2nd Verse End

---|-0--0--0--------------------0--0--------------|-0--0--0--------------|---|
---|-0--0--0---12--12--12---17--0--0---12--12--12-|-0--0--0---12--12--12-|---|
---|-0--0--0--------------------0--0--------------|-0--0--0--------------|---|
---|----------------------------------------------|----------------------|---|
---|----------------------------------------------|----------------------|---|
---|----------------------------------------------|----------------------|---|
    Interlude

---|--------------------------------------------------------------------------|
---|-10--10-10--10-10-/-17--17-17--17-17--20p17--17-17--17-17--20p17-17-20p17-|
---|--------------------------------------------------------------------------|
---|--------------------------------------------------------------------------|
---|--------------------------------------------------------------------------|
---|--------------------------------------------------------------------------|
    Solo/Chorus Out

---------------------------|--------------------------------------------------|
-17-20p17-17--17-17--17-17-|--------------------------------------------------|
---------------------------|--------------------------------------------------|
---------------------------|--------------------------------------------------|
---------------------------|--------------------------------------------------|
---------------------------|--------------------------------------------------|





Suck My Kiss
Standard Tuning


----|--------------------|--|-------------------------------|-----------------|
----|-------0------------|--|-------------------------------|-----------------|
----|-------3------------|--|-------------------------7/9-9-|-----------------|
----|-------3--------x-x-|--|---------3-3-3-3-5/7-7-7-------|-----------------|
----|----------------x-x-|--|-3/5-5-5-----------------------|-----------------|
----|-1--3-----1--3--x-x-|--|-------------------------------|-----------------|
     Intro

----|------------------------------------------------------|--|---------------|
----|------------------------------------------------------|--|---------------|
----|------------------------------------------------------|--|---------------|
----|------------------------------------------------------|--|---------------|
----|-------------------------------------------1-1h3p1----|--|---------------|
----|-1--3--x-3--1-1--3--x-3--1--3--x-3--1-1--3---------3--|--|---------------|
     Verse

----|-----4-------------4-------5---6--|-------------|------------------------|
----|-----4-------------4-------5---6--|-------------|------------------------|
----|-x---x---------x---x---x---x---x--|-------3vvv--|------------------------|
----|-3-------------3-------4----------|-------------|------------------------|
----|-3-------------3-------4----------|-------------|------------------------|
----|----------------------------------|-1--3--------|------------------------|
                                        Verse End

----|---------3-3-3-3-3-3--------|--|----------|------------|-----------------|
----|---------3-3-3-3-3-3--------|--|-3-----0--|------------|-----------------|
----|---------4-4-4-2-2-2-2--2---|--|-4b5r4-0--|------------|-----------------|
----|-2--2----------------2--2---|--|----------|-2--2--2--2-|-----------------|
----|-2--2----------------0--0---|--|----------|-2--2--2--2-|-----------------|
----|-0--0-----------------------|--|----------|-0--0--0--0-|-----------------|
      Chorus                          P     P




By The Way
Standard Tuning


---|----|--|---|--|---|---|----|--|----|--|---|---|-------------|-------------|
---|----|--|---|--|---|---|----|--|----|--|---|---|-------------|-------------|
---|-10-|--|-9-|--|---|---|-10-|--|----|--|---|---|-------------|-------------|
---|-x--|8x|-x-|8x|-7-|16x|-x--|8x|-14-|8x|-7-|12x|-14-14-12-12-|-------------|
---|-8--|--|-7-|--|-x-|---|-8--|--|-x--|--|-x-|---|-------------|-------------|
---|----|--|---|--|-5-|---|----|--|-15-|--|-5-|---|-------------|-------------|
    Intro/Verse

---|----|--|----|--|---|---|-------------|----|--|---|--|---|--|-5-|---|------|
---|----|--|----|--|---|---|-------------|----|--|---|--|---|--|-5-|---|------|
---|-10-|--|----|--|---|---|-------------|----|--|-9-|--|---|--|-5-|---|------|
---|-x--|8x|-10-|8x|-7-|12x|-14-14-12-12-|-10-|8x|-x-|8x|-7-|4x|-7-|12x|------|
---|-8--|--|-x--|--|-x-|---|-------------|-x--|--|-7-|--|-x-|--|-x-|---|------|
---|----|--|-8--|--|-5-|---|-------------|-8--|--|---|--|-5-|--|-5-|---|------|


---|---------|---|-------------|---------------------------|--|--------------|
---|---------|---|-13-13-13-13-|---------------------------|--|-13-13-13-13--|
---|-x-x-x-x-|---|-------------|-12-12-x-x-x-x-x-x-x-x-x-x-|--|--------------|
---|-x-x-x-x-|28x|-------------|-14-14-x-x-x-x-x-x-x-x-x-x-|--|--------------|
---|-x-x-x-x-|---|-------------|-15-15-x-x-x-x-x-x-x-x-x-x-|--|--------------|
---|---------|---|-------------|---------------------------|--|--------------|
    Bridge

---|---------------------------|--|----------------------------------------|--|
---|---------------------------|--|----------------------------------------|--|
---|-12-12-x-x-x-x-x-x-x-x-x-x-|--|-12-12-12-12-12-12-12-12-12-12-12-12-12-|--|
---|-14-14-x-x-x-x-x-x-x-x-x-x-|--|-14-14-14-14-14-14-14-14-14-14-14-14-14-|--|
---|-15-15-x-x-x-x-x-x-x-x-x-x-|--|-15-15-15-15-15-15-15-15-15-15-15-15-15-|--|
---|---------------------------|--|----------------------------------------|--|


---|------------------------------------|-------------------------------------|
---|------------------------------------|-------------------------------------|
---|-10--------10----10---------5----7--|-------------------------------------|
---|-10---14---12----10---14----7----8--|-------------------------------------|
---|-8----15---12----8----15----7----8--|-------------------------------------|
---|------15--------------15------------|-------------------------------------|
     Chorus Chords Strum

---|--------------|-----------------------------------------------------------|
---|-13-13--------|-----------------------------------------------------------|
---|-12-12--------|-----------------------------------------------------------|
---|-14-14--------|-----------------------------------------------------------|
---|--------------|-----------------------------------------------------------|
---|--------------|-----------------------------------------------------------|
   Interlude




Parallel Universe
Standard Tuning



----|-------------|--|-------------|------------------------------------------|
----|-------------|--|-------------|------------------------------------------|
----|-------------|--|-------------|------------------------------------------|
----|-13-13-13-13-|4x|-13-13-13-13-|------------------------------------------|
----|-------------|--|-13-13-13-13-|------------------------------------------|
----|-------------|--|-11-11-11-11-|------------------------------------------|
    Intro Heavy P.M.

----|-------------|--|-------------|--|-------------|--|-------------|--|-----|
----|-------------|--|-------------|--|-------------|--|-------------|--|-----|
----|-------------|--|-------------|--|-------------|--|-------------|--|-----|
----|-13-13-13-13-|8x|-12-12-12-12-|8x|-15-15-15-15-|4x|-13-13-13-13-|4x|-----|
----|-13-13-13-13-|--|-13-13-13-13-|--|-12-12-12-12-|--|-13-13-13-13-|--|-----|
----|-11-11-11-11-|--|-10-10-10-10-|--|-10-10-10-10-|--|-11-11-11-11-|--|-----|
    Intro/Verse Heavy P.M.

----|-------------|--|----------------------------------|---------------------|
----|-------------|--|----------------------------------|---------------------|
----|-------------|--|----------------------------------|---------------------|
----|-10-10-10-10-|4x|----------------------------------|---------------------|
----|-10-10-10-10-|--|-10-10-10-8-8-8-------------------|---------------------|
----|-10-10-10-10-|--|----------------11-11-11-10-10-10-|---------------------|
     End 1 Heavy P.M.

----|-------------|--|-------------|--|-------------|--|----------------------|
----|-------------|--|-------------|--|-------------|--|----------------------|
----|-------------|--|-15-15-15-15-|--|-16-16-16-16-|--|----------------------|
----|-10-10-10-10-|4x|-15-15-15-15-|2x|-16-16-16-16-|2x|----------------------|
----|-10-10-10-10-|--|-13-13-13-13-|--|-14-14-14-14-|--|----------------------|
----|-10-10-10-10--|--|-------------|--|-------------|--|---------------------|
     Last End Heavy P.M.

----|---------------------------------------------------------------------|---|
----|---------------------------------------------------------------------|---|
----|---------------------------------------------------------------------|---|
----|-10--10--10-10--5-6--6-/-13-13-13-13-5-5-5-5-5-5-5-5-5-5-5-5-5-5-5-5-|---|
----|-10--10--10-10--5-6--6-/-13-13-13-13-5-5-5-5-5-5-5-5-5-5-5-5-5-5-5-5-|---|
----|-8---8---8--8---3-4--4-/-11-11-11-11-3-3-3-3-3-3-3-3-3-3-3-3-3-3-3-3-|---|
     Chorus

----|----|--------------------------------------------------|--|--------------|
----|-13-|--------------------------------------------------|--|--------------|
----|-12-|--------------------------------------------------|--|--------------|
----|-13-|-13-13-13-13-13-13--------------------------------|4x|--------------|
----|----|-------------------13-13-13-13-13-13-10-10-10-10--|--|--------------|
----|----|--------------------------------------------------|--|--------------|
     Interlude

----|------------------------------------|------------------------------------|
----|------------------------------------|------------------------------------|
----|------------------------------------|------------------------------------|
----|------------------------------------|------------------------------------|
----|------------------------------------|------------------------------------|
----|------------------------------------|------------------------------------|
     Outro (Verse Chords w/ phase shifter)





Breaking The Girl
½ Step Down



--|-----------------------------------------------------9---9--9---9--9--9---|
--|-2--2--2----2-2--4--5--5----5-5--7--7--7-----7-7--9--10--10-10--10-10-10--|
--|-2--2--2-2--2-2--4--5--5-5--5-5--7--7--7-7---7-7--9--9---9--9---9--9--9---|
--|-2--2--2-2--2-2--4--5--5-5--5-5--7--7--7-7---7-7--9-----------------------|
--|---------4---------------7---------------10-------------------------------|
--|--------------------------------------------------------------------------|
   Intro/Verse

--|-0---3---0--0--0---0---3---0---|-0---0---x---x---10---0---0---0---x---0---|
--|-1---0---1--0--1---1---0---1---|-1---1---1---3---9----1---1---1---3---1---|
--|-0---0---2--0--2---0---0---2---|-2---3---2---4---9----2---3---2---4---2---|
--|-2---0---2--0--2---2---0---3---|-2---0---2---5---9----2---0---2---5---3---|
--|-3---2---0--0--0---3---2---3---|-0---2---3---5---7----0---2---3---5---3---|
--|-x---3---x--x--x---x---3---x---|-x---x---x---x---x----x---x---x---x---x---|
   Prechorus Chords Strum           Chorus Chords Strum

---|------------13--13--13--|--|----------------------------------------------|
---|---1--------13--13--13--|--|----------------------------------------------|
---|---2--------14--14--14--|--|----------------------------------------------|
---|---2--------------------|--|----------------------------------------------|
---|------------------------|--|----------------------------------------------|
---|------------------------|--|----------------------------------------------|
    Interlude

---|-12-------12--------|--|---------------------|--|-------------------------|
---|-13--13---13---13---|--|-12---13---12---13---|--|-------------------------|
---|-----14--------14---|--|-13---14---13---14---|--|-------------------------|
---|--------------------|2x|---------------------|2x|-------------------------|
---|--------------------|--|---------------------|--|-------------------------|
---|--------------------|--|---------------------|--|-------------------------|
    Outro





My Friends
D Tuning


---|---------|----------------------------------------------------------------|
---|---------|---3---------3-------------------------------3---------3--------|
---|---------|-2-2-----0h2-2-------0---------------------2-2-----0h2-2--------|
---|-5--3--0-|---0-0-3-----0-3---0-0-------0h2-3h5p3-2-0---0-0-3-----0-3---0--|
---|-5-------|-----------------2---2-2-2h3-------------------------------2----|
---|---------|----------------------------------------------------------------|
    Intro/Verse

---------------------|--------------------------------------------------------|
---------------------|--------------------------------------------------------|
-0-------------------|--------------------------------------------------------|
-0---5--5-5-3--3-3-0-|--------------------------------------------------------|
-2-2-5--5-5-3--3-3-0-|--------------------------------------------------------|
-----5--5-5-3--3-3-0-|--------------------------------------------------------|


---|-------0---0-----------------------------------------0--------------------|
---|-------0----0-----------------0----------------------0------------------0-|
---|-0-----2-----2--------0-------6---4/6-6-6-7-7\-0-----2---------0--------6-|
---|-2-----2------2-----2---2---4-7---5/7-7-7-9-9\-2-----2-------2---2---4--7-|
---|-3-----0----------3-------5-------x-x-x-x-x-x--3-----0-----3-------5------|
---|-------0---------------------------------------------0--------------------|
     Chorus

----------------|------------------|------------------------------------------|
----------------|--3---3-----------|------------------------------------------|
--------------2-|--2---2---0---0---|------------------------------------------|
-7/9-9-9-9--5---|--0---3---0---2---|------------------------------------------|
----------------|----------2---3---|------------------------------------------|
----------------|------------------|------------------------------------------|
                  Verse Chords

|---------------------------------------------------|
|---------------------------------------------------|
|-8/1111117-7/9\5-5-5/7-4v-4-4/5-5/7-7-8/1111111111-|
|-x-x-x-x-x-x---x-x-x---x--x-x-x-x---x-x-x-x-x-x-x--|
|-6/9-9-9-5-5/7\3-3-3/5-2v-2-2/3-3/5-5-6/9-9-9-9-9--|
|---------------------------------------------------|
  Interlude

-----------------------------------------------|
-----------------------------------------------|
-111114-14-14-14-14-14-14/16/12v-9--16b--------|
-x-x-x--x--x--x--x--x--x-----x---x-------------|
-9-9/12-12-12-12-12-12-12/14/10v-7-------------|
-----------------------------------------------|


---|-------------------------|-----------|-------------|--|-------------|-----|
---|-------------------------|-----------|-------------|--|-------------|-----|
---|-9---7---6---5---0---4---|-----------|-14-14-14-14-|--|-14-14-14-\--|-----|
---|-9---7---6---5---2---4---|-3---------|-15-15-15-15-|3x|-15-15-15-\--|-----|
---|-7---5---4---3---3---2---|-3---------|-15-15-15-15-|--|-15-15-15-\--|-----|
---|-------------------------|-3---3/13--|-------------|--|-------------|-----|
    Bridge

---|-----------------------------|--|-----------------------------------------|
---|-----------------------------|--|-3----3---------3-------3----------------|
---|-----------------------------|--|-2--2-------0h2-2-------0----------------|
---|-16--17--15--14--16--17--10--|--|-0------0-3-----0-3---0-0-------0h2-5-0--|
---|-----------------------------|--|--------------------2-----2-2h3-----5----|
---|-----------------------------|--|-----------------------------------------|
    Outro  Strum Each                                                    P

-0--------------------|-------------------------------------------------------|
-3--------------------|-------------------------------------------------------|
-2--2-----------------|-------------------------------------------------------|
-0----0-------0----0--|-------------------------------------------------------|
-0------0---2-2----0--|-------------------------------------------------------|
-0--------3-----3b-0--|-------------------------------------------------------|
              P




Higher Ground
Standard Tuning


-----|------------------------------------------------------|-----------------|
-----|-x-12--12--x-x-x-------14-x-12--12--------------------|-----------------|
-----|-x-12--12--x-x-x-12h14----x-12--12--------------------|-----------------|
-----|-x-12--12--x-x-x----------x-12--12--------12-------12-|-----------------|
-----|------------------------------------12h14----12h14----|-----------------|
-----|------------------------------------------------------|-----------------|
      Intro Repeat

-----|-----------------------------------------------------------------------|
-----|-x-12--12--x-x-x-------14-x-x-x-x-14-14-14-14-14-14-14-14-14-14-14-14--|
-----|-x-12--12--x-x-x-12h14----x-x-x-x-14-14-14-14-14-14-14-14-14-14-14-14--|
-----|-x-12--12--x-x-x----------x-x-x-x-14-14-14-14-14-14-14-14-14-14-14-14--|
-----|-----------------------------------------------------------------------|
-----|-----------------------------------------------------------------------|
      End 1

-----|-------------------------------------------------------|----------------|
-----|-x-12--12--x-x-x----------x-12--12--12-12-12--12-12-12-|----------------|
-----|-x-12--12--x-x-x----------x-12--12--12-12-12--12-12-12-|----------------|
-----|-x-12--12--x-x-x-------12-x-12--12--12-12-12--12-12-12-|----------------|
-----|-----------------12h14---------------------------------|----------------|
-----|-------------------------------------------------------|----------------|
      End 2

-----|-----------------------------|--|---------------------------------------|
-----|-----------------------------|--|---------------------------------------|
-----|-----------------------------|--|---------------------------------------|
-----|---------------5-5-5--7-7-7--|--|---------------------------------------|
-----|---------------5-5-5--7-7-7--|--|---------------------------------------|
-----|-0-0-0--0-0-0--3-3-3--5-5-5--|--|---------------------------------------|
      Verse

-----|-----------------------------------------------------|-15-15-15-15-|---|
-----|----------2-2-2--------------------------------------|-15-15-15-15-|---|
-----|----2-----2-2-2--4-4-4-----2-------------------------|-14-14-14-14-|---|
-----|-4----4vv-2-2-2--4-4-4--4----4vv--4-2----------------|-------------|2x-|
-----|-----------------2-2-2----------------4-2-----0---0--|-------------|---|
-----|------------------------------------------5-2--------|-------------|---|
      Verse Out

-----|----------------------------------------|--|-2-----3------|-------------|
-----|------------------------12----------12--|--|-2-----3------|-------------|
-----|------------------------12----------12--|--|-3-----4------|-------------|
-----|-7--7--5-7p5------------12----------12--|--|-4-----5------|-------------|
-----|-7--7--------7--------------------------|--|-4-----5------|-------------|
-----|-5--5-----------0-0-0-0-----0-0-0-0-----|--|-2-----3------|-------------|
      Chorus                                       Strum



Universally Speaking
Standard Tuning


----|---------|--|-5----0----3----2---|---------------------------------------|
----|-7---8---|--|-5----5----3----3---|---------------------------------------|
----|-7---7---|--|-6----6----4----4---|---------------------------------------|
----|-7---0---|--|-7----6----5----4---|---------------------------------------|
----|---------|--|-7----x----5----2---|---------------------------------------|
----|---------|--|-5----5----3----x---|---------------------------------------|
      Verse        Chorus Chords




Road Trippin'
Standard Tuning



---|---3-----3-----3----------------------3-----3-----3--------------------|--|
---|------0-----0----0--5-----4-----4--------0-----0----0--5-----4-------4-|--|
---|----------------------------------4--------------------------------4---|--|
---|-2----------------------------------2----------------------------------|--|
---|-----------------------3-----2----------------------------3-----2------|--|
---|-----------------------------------------------------------------------|--|
    Intro/Verse

---|---3-----3--5--3------------------|--|------------------------------------|
---|------0-----------5-----4-----4---|--|------------------------------------|
---|--------------------------------4-|--|------------------------------------|
---|-2--------------------------------|--|------------------------------------|
---|---------------------3-----2------|--|------------------------------------|
---|----------------------------------|--|------------------------------------|


----|-------0---------------------------------|--|----------------------------|
----|----1---------------------------12-12----|--|----------------------------|
----|--------------------------12-12-------12-|--|----------------------------|
----|-----------------------------------------|--|----------------------------|
----|-0--------2-------3----------------------|--|----------------------------|
----|--------------3-------3------------------|--|----------------------------|
     Chorus

----|----------------------------------|--|-------------|--5-------5-|--------|
----|-8-------8-------------5-------5--|--|--7-------7--|-------4----|--------|
----|------9-----6-------6-------5-----|--|-------5-----|-----5------|--------|
----|----9------------5--------5-------|--|-----7-------|--4---------|--------|
----|-7-------------7-------3----------|--|--5----------|------------|--------|
----|------------5---------------------|--|-------------|------------|--------|
     Bridge Repeat                          END 1         END 2

----|-5-----5-----5---8---11---8---5---2--|-----------------------------------|
----|-------4---------7---10---7---4---1--|-----------------------------------|
----|----5-----5----/---/----\---\---\----|-----------------------------------|
----|-4-------------/---/----\---\---\----|-----------------------------------|
----|-------------------------------------|-----------------------------------|
----|-------------------------------------|-----------------------------------|
     END 3  P         P   P    P   P   P

----|----3--------|--|--------------------------------------------------------|
----|----------0--|--|--------------------------------------------------------|
----|-------------|--|--------------------------------------------------------|
----|-2-----2-----|--|--------------------------------------------------------|
----|-------------|--|--------------------------------------------------------|
----|-------------|--|--------------------------------------------------------|
     Outro




Fortune Faded
Standard Tuning



----|---|--|----------------------------------------------|-9-9-9-9-|--|------|
----|-2-|--|---------------------------10----10----10-----|---------|--|------|
----|-3-|--|----11-----------11-----------11----11-----11-|---------|--|------|
----|-4-|--|-9------11--9-9-----11--9---------------------|---------|3x|------|
----|---|--|----------------------------------------------|---------|--|------|
----|---|--|----------------------------------------------|---------|--|------|
    Intro    Riff 1

----|----------------------------------------------|--------------------------|
----|---------------------------10------10---------|--------------------------|
----|----11-----------11------------11------11--\--|--------------------------|
----|-9------11--9-9-----11--9---------------------|--------------------------|
----|----------------------------------------------|--------------------------|
----|----------------------------------------------|--------------------------|
      Riff 2

----|-------|--|-------------------------------------|------------------------|
----|-------|--|------------------3-3-3-3-----3---3--|------------------------|
----|-------|--|-7--x-7--x-7---7--4-4-4-4-4---4---4--|------------------------|
----|-------|--|-7--x-7--x-7---7--5-5-5-5-5---5---5--|------------------------|
----|-------|--|-5--x-5--x-5---5----------5----------|------------------------|
----|-5-5---|--|-------------------------------------|------------------------|
      Verse

----|-------|--|-------------------------------------|------------------------|
----|-------|--|------------------3-3-3-3--3-3-3-3-3-|------------------------|
----|-------|--|-7--x-7--x-7---7--4-4-4-4--4-4-4-4-4-|------------------------|
----|-------|--|-7--x-7--x-7---7--5-5-5-5--5-5-5-5-5-|------------------------|
----|-------|--|-5--x-5--x-5---5---------------------|------------------------|
----|-5-5---|--|-------------------------------------|------------------------|


----|-------------------|-------------------------------|---------------------|
----|-------------------|-5----3------------------------|---------------------|
----|-------------------|-6----4---------7-----7---7----|---------------------|
----|-------------------|-7----5---------9-----7---9----|---------------------|
----|-------------------|----------------9-----9---9----|---------------------|
----|-------------------|-------------------------------|---------------------|
     Riff 2 Verse Riff 1  Chorus Chords Strum

----|---------|--|------------------------------------------------------------|
----|-2-2-2-2-|--|------------------------------------------------------------|
----|-3-3-3-3-|--|------------------------------------------------------------|
----|-4-4-4-4-|--|------------------------------------------------------------|
----|---------|--|------------------------------------------------------------|
----|---------|--|------------------------------------------------------------|
     Bridge






Save The Population
Standard Tuning




----|-------------------------------------------------------------------------|
----|----------------------15----15-------------------------------------------|
----|------15---------------------------------15----------------17----17------|
----|-17------15--------------------------17-----15---------------------------|
----|--------------18-17------17----17----------------18-17--------17----17---|
----|-------------------------------------------------------------------------|
     Intro

-----------------------------------------------------------------|------------|
-----------------------------------------------------------------|------------|
---------15------------------------------------------------------|------------|
----17------15--------------19--19---19b20r19-17----15br---------|------------|
------------------18-17------------------------------------17----|------------|
-----------------------------------------------------------------|------------|


----|---------------------|--|-------------------------|----------------|-----|
----|---------------------|--|-18-18-18-18-18-18-18-18-|----16----16----|-----|
----|------15-------------|--|-------------------------|----------------|-----|
----|-17------15----------|--|-------------------------|----------------|-----|
----|--------------18-17--|--|-------------------------|-17----17----17-|-----|
----|---------------------|--|-------------------------|----------------|-----|
     Verse Repeat              End 1                    End 2

----|-------------------------------------------------------------------------|
----|-------------15-15-15--15------------------------------------------------|
----|------------------------------17--17--17-----15--15--15------------------|
----|------------------------------------------------------------19--19-19----|
----|-17--17--17----------------17-------------17-------------17--------------|
----|-------------------------------------------------------------------------|
     End 3

------------------------------------------------------------------------------|
------------------------------------------------------------------------------|
----------------------------3---------------------------------3---------------|
-------18-18-18--18\----5-----------------/10--10-10--10--5-------------------|
-17-----------------------------6--5-----------------------------6--5--5------|
------------------------------------------------------------------------------|


------------------------------------------------------------------------|-----|
-------------------------------7---7h8p7----------------7--7--7-7-7-7-7-|-----|
-5/7--7-7--7------3----------------------7------5/7\5---5--5--5-5-5-5-5-|-----|
--------------5-----------------------------------------7--7--7-7-7-7-7-|-----|
----------------------6--5----------------------------------------------|-----|
------------------------------------------------------------------------|-----|


----|-3----6----|-11-----8---|--10------|-------------------------------------|
----|-3----6----|-11-----8---|--10------|-------------------------------------|
----|-3----7----|-12-----8---|--11------|-------------------------------------|
----|-5----8----|-13-----10--|--12------|-------------------------------------|
----|-5----8----|-13-----10--|--12------|-------------------------------------|
----|-3----6----|-11-----8---|--10------|-------------------------------------|
      Prechorus Chords

----|----14-------------------------------------------------------------------|
----|-------15----13-15-13-15-------15----13-15-13-15-------15----13-15-13-15-|
----|-12-------12-------------12-12----12-------------12-12----12-------------|
----|-------------------------------------------------------------------------|
----|-------------------------------------------------------------------------|
----|-------------------------------------------------------------------------|
     Chorus

-----------------------15-|--|-15-------|-------------------------------------|
--------15----13-15-------|--|-15-------|-------------------------------------|
--12-12----12-------12----|--|-12-------|-------------------------------------|
--------------------------|--|----------|-------------------------------------|
--------------------------|--|----------|-------------------------------------|
--------------------------|--|----------|-------------------------------------|
                               End Strum
Добавлено: 11.06.2013
Другие материалы по этой песне:
  • Аккорды и текст

Страница создана 11.06.2013
http://primanota.ru/red-hot-chili-peppers/greatest-hits-chords.htm
Привет, Гость.
Предлагаем пройти революционный курс по гитаре.
Подарок от PrimaNota.Ru, забирай!