PrimaNota.ru - самый крупный в мире бесплатный архив песенных текстов, аккордов, табулатур и нот


Red Hot Chili Peppers - Californication Live At Slane Castle - таба, видео

Регистрация Запомнить меня
Войти через:  Facebook Google Twitter Vk Yandex Mail.ru

Red Hot Chili Peppers - Californication Live At Slane Castle - таба, видео

Печатать
Просмотров: 307
Уроки эстрадного вокала в Санкт-Петербурге
well this is the solo of californication at slane castle i'm pretty sure about this 
i hope you like it :)


e|--------------------------------------------------------------------|
B|----5h7--7--- -7p5--7p5----------5h7--7---7b----7p5-----------------|
G|-------------------------6----------------------------6-------------|
D|----------------------------4----------------------------4--4-------|
A|--------------------------------------------------------------------|
E|--------------------------------------------------------------------|

e|--------------------------------------------------------------------|
B|--------------------------------------------------------------------|
G|---------------------------------9--11------------------------------|
D|------4h7-6-4------7----7--9/11---------11p9------------------------|
A|---------------7-7----9-------------------------11------------------|
E|--------------------------------------------------------------------|

e|--------------------------------------------------------------------|
B|----------------------------------------------14-12-14-14-----------|
G|--------9----9h11-11b-11-11-11-11p9-11-11---------------------------|
D|---9h11---11--------------------------------------------------------|
A|--------------------------------------------------------------------|
E|--------------------------------------------------------------------|

e|----14p12-14-14---14p12-14-14-14p12---12--------12---12-------------|
B|------------------------------------14---14---14---14--14-----------|
G|--------------------------------------------------------------------|
D|--------------------------------------------------------------------|
A|--------------------------------------------------------------------|
E|--------------------------------------------------------------------|

e|--------------------------------------------------12----------------|
B|---14b 14b-14b-14b---14b---14---------14-------------14-------------|
G|-------------------------14--14--13h14---14--13h14------------------|
D|--------------------------------------------------------------------|
A|--------------------------------------------------------------------|
E|--------------------------------------------------------------------|

e|--------------------------------------------------------------------|
B|-------14--14p12----------------------------------------------------|
G|-13h14----------14-13h14-14--14p13--------16--14-13-14--13h14p13----|
D|-------------------------------------16-16--------------------------|
A|--------------------------------------------------------------------|
E|--------------------------------------------------------------------|

E|---------------------------------------------------12-14-12-14-14b--|
B|----------------------------------------------12-14-----------------|
G|----------------------------------------13-14-----------------------|
D|---16-16-18-16h18p16-14---16-14--14-16------------------------------|
A|-------------------------------16-----------------------------------|
E|--------------------------------------------------------------------|

E|-12--14-12-14-12-14-----------------------------------------0-------|
B|- ----------------------------0-1---------------------0-1----1------|
G|- ------------------------------------------0-2--------------2------|
D|- --------------------------2------------------------2-------3------|
A|- ------------------------0--------------3----------0--------3------|
E|---------------------------------------1---------------------1------|

hear the song so you can get the rhythm :D

Добавлено: 05.09.2015
Другие материалы по этой песне:
  • Аккорды и текст

Страница создана 05.09.2015
http://primanota.ru/red-hot-chili-peppers/californication-live-at-slane-castle-chords.htm
Привет, Гость.
Предлагаем пройти революционный курс по гитаре.
Подарок от PrimaNota.Ru, забирай!