PrimaNota.ru - самый крупный в мире бесплатный архив песенных текстов, аккордов, табулатур и нот


Red Hot Chili Peppers - By The Way Live - таба, бас-таба, видео

Регистрация Запомнить меня
Войти через:  Facebook Google Twitter Vk Yandex Mail.ru

Red Hot Chili Peppers - By The Way Live - таба, бас-таба, видео

Печатать
Просмотров: 194
Уроки эстрадного вокала в Санкт-Петербурге
This is the solo for By the Way Live in Hyde park. I am the first one to tab it. DONT
STEAL it. This is the extra part they added on for the concert and is also on the cd.


 

 


  Gtr I
          PM                PM    PM  PM
|-1-1-1---x-0-0-0-0-1-0-0-0-x-1-1-x-1-x-1-1-0-0-1-1-1-1-0-0-0-0-0-1---3-3-3-3--|
|-1-1-1---x-1-1-1-1-1-1-1-1-x-3-3-x-3-x-3-3-3-3-3-1-1-1-1-1-1-------2-3-3-3-3--|
|-2-2-2---x-0-0-0-0-0-0-0-0-x-2-2-x-2-x-2-2-2-2-2-2-2-2-0-0-0------------------|
|-3-3---3-x-2-2-2-2-2-2-2-2-x-0-0-x-0-x-0-0-0-0-0-3-3-3-2-2-2------------------|
|-3-3---3-x-3-3-3-3-3-3-3-3-x-----x---x-----------3-3-3-3-3-3------------------|
|---------x-----------------x-----x---x----------------------------------------|


|--------------------------------------------------------------------------|
|----10---------10-10-10--8--8--8-10-10-10---------10-10-10--8--8--8--8----|
|----10-7-7-7-7-10-10-10--9--9--9-10-10-10-7-7-7-7-10-10-10--9--9--9--9----|
|----12-8-8-8-8-10-10-10-10-10-10-12-12-12-8-8-8-8-10-10-10-10-10-10-10----|
|----12-8-8-8-8--8--8--8-10-10-10-12-12-12-8-8-8-8--8--8--8-10-10-10-10----|
|-10----6-6-6-6-------------------10-------6-6-6-6-------------------------|


|-----------------------------------------------------------------------------|
|-10-10-10---------10--10-10--8--8--8-10-10-10----------10-10-10--8---8--8----|
|-10-10-10-7-7-7-7-10--10-10--9--9--9-10-10-10--7-7-7-7-10-10-10--9---9--9----|
|-12-12-12-8-8-8-8-10--10-10-10-10-10-12-12-12--8-8-8-8-10-10-10-10--10-10----|
|-12-12-12-8-8-8-8--8---8--8-10-10-10-12-12-12--8-8-8-8--8--8--8-10--10-10----|
|-10-------6-6-6-6--------------------10--------6-6-6-6-----------------------|


|---------------------|-------------------------|
|-10-10-10---------10-|-10-10--8--8--8-10-10-10-|
|-10-10-10-7-7-7-7-10-|-10-10--9--9--9-10-10-10-|
|-12-12-12-8-8-8-8-10-|-10-10-10-10-10-12-12-12-|
|-12-12-12-8-8-8-8--8-|--8--8-10-10-10-12-12-12-|
|-10-------6-6-6-6----|----------------10-------|


|---------------------|----------|
|---------10-10-10--8-|--8--8----|
|-7-7-7-7-10-10-10--9-|--9--9----|
|-8-8-8-8-10-10-10-10-|-10-10----|
|-8-8-8-8--8--8--8-10-|-10-10----|
|-6-6-6-6-------------|----------|


|--------------------------------------8-8-8-10-8----------------8b10--8--------------------------------------------|
|---------------10-8----8----8----8-10------------10-10-10-10-10---------10-10-10-11-10-11-10-------8b10--8---------|
|-5h7-7-10-7-10------10---10---10-------------------------------------------------------------10-10---------10-9-9--|
|-------------------------------------------------------------------------------------------------------------------|
|-------------------------------------------------------------------------------------------------------------------|
|-------------------------------------------------------------------------------------------------------------------|


|----------------------------------------------------------------------------------------------|
|-------8b10--8----8b10-8------------8b10--8----8b10-8-----------------------------------------|
|-10-10---------10--------10-9-10-10---------10--------10-9-10-10-9-7-7------------------------|
|-----------------------------------------------------------------------7-7-7-----7-7-10-7b8-7-|
|-----------------------------------------------------------------------------8-8--------------|
|----------------------------------------------------------------------------------------------|


|---------------------------------------------------------------------------------------------------|
|-------------------10-10-10-10-10-10h11--8--8--8-10-10-10-10-10-10-10-------10-10-10-10-10-10h11---|
|-------------------10-10-10-10-10-10-----9--9--9-10-10-10-10-10-10-10-7-7-7-10-10-10-10-10-10------|
|--------7----8-8-8-10-10-10-10-10-10----10-10-10-12-12-12-12-12-12-12-8-8-8-10-10-10-10-10-10------|
|-8----8---10-8-8-8--8--8--8--8--8--8----10-10-10-12-12-12-12-12-12-12-8-8-8--8--8--8--8--8--8------|
|---10--------6-6-6-------------------------------10-------------------6-6-6------------------------|


|-------------------------------------------------------10-------------------------------------|
|--8--8--8-10-10-10-10-10-10-10-------10-10-10-10-10-10-10--8--8--8-10-10-10-10-10-10-10-10----|
|--9--9--9-10-10-10-10-10-10-10-7-7-7-10-10-10-10-10-10-----9--9--9-10-10-10-10-10-10-10-10----|
|-10-10-10-12-12-12-12-12-12-12-8-8-8-10-10-10-10-10-10----10-10-10-12-12-12-12-12-12-12-12----|
|-10-10-10-12-12-12-12-12-12-12-8-8-8--8--8--8--8--8--8----10-10-10-12-12-12-12-12-12-12-12----|
|----------10-------------------6-6-6-------------------------------10-------------------------|


|----------------------------|----------------|
|-------10-10-10-10-10-10h11-|--8--8--8-10----|
|-7-7-7-10-10-10-10-10-10----|--9--9--9-10----|
|-8-8-8-10-10-10-10-10-10----|-10-10-10-12----|
|-8-8-8--8--8--8--8--8--8----|-10-10-10-12----|
|-6-6-6----------------------|----------10----|
Добавлено: 07.07.2012
Другие материалы по этой песне:

Страница создана 05.04.2012
http://primanota.ru/red-hot-chili-peppers/by-the-way-live-chords.htm
Привет, Гость.
Предлагаем пройти революционный курс по гитаре.
Подарок от PrimaNota.Ru, забирай!