PrimaNota.ru - самый крупный в мире бесплатный архив песенных текстов, аккордов, табулатур и нот


Red Hot Chili Peppers - Blues For Meister - аккорды и текст, бас-таба, видео

Регистрация Запомнить меня
Войти через:  Facebook Google Twitter Vk Yandex Mail.ru

Red Hot Chili Peppers - Blues For Meister - аккорды и текст, бас-таба, видео

Печатать
Просмотров: 184
Авторы музыки: Michael Peter Balzary
Авторы текста: Michael Peter Balzary
Blues For Meister
Red Hot Chili Peppers
Intro:
G|----12--------11--------10-------9-|
D|-12-----12-11-----11-10-----10-9---|
A|-----------------------------------|
E|-----------------------------------|
 
Verse: (Repeat 3x)
G|-----------------------------------------------------|
D|---5---4-5----5---4-5---------5---4-5----7-------5-4-|
A|-7---7------7---7-----------7---7------7---4-5-7-----|
E|-----------------------5-5---------------------------|

Chorus:
G|----------------------7-8------------------------------------|
D|-9--9-7-9-7----9--9-7------9--9-7-9-7----------9--9-7-9-7----|
A|------------9-------------------------9--9--7-------------9--|
E|-------------------------------------------------------------|

E|--------7-8-|
B|-9--9-7-----|
G|------------|
D|------------|

G|-------------------------------------------------7-8--------|
D|-9--9-7-9-7------9---9---9--9--9-7-9-7----9--9-7-----9--9-7-|
A|------------9--7---8---9---------------9--------------------|
E|------------------------------------------------------------|

E|-------------|
B|-9-7---------|
G|-----9--9--7-|
D|-------------|

G|----------------------7-8----------------------|
D|-9--9-7-9-7----9--9-7-------9--9-7-9-7---------|
A|------------9--------------------------789-7-5-|
E|-----------------------------------------------|

Instrumental: (Repeat 3x)
G|-----------------------------------------------------|
D|-----------------------------------------------------|
A|---3---2-3----3---2-3--5-5----3---2-3----5-------3-2-|
E|-5---5------5---5-----------5---5------5---2-3-5-----|

G|-----------------------------------------------------------|
D|-----------------------------------------------------------|
A|-3--3-3--3----2--2-2--2----3--3-3--3---5--5-5--5----5----5-|
E|-----------------------------------------------------------|

Ending:
G|---------6-------------7-------------6-----8--5----------|
D|------5-----7-------5-----7-------5-----7--------7--5----|
A|----7-------------7-------------7------------------------|
E|-5-------------5-------------5-------------------------5-|
Добавлено: 13.08.2013
Другие материалы по этой песне:

Страница создана 26.02.2012
http://primanota.ru/red-hot-chili-peppers/blues-for-meister-chords.htm
Привет, Гость.
Предлагаем пройти революционный курс по гитаре.
Подарок от PrimaNota.Ru, забирай!