PrimaNota.ru - самый крупный в мире бесплатный архив песенных текстов, аккордов, табулатур и нот


Red Guitar - Die For You - таба, видео

Регистрация Запомнить меня
Войти через:  Facebook Google Twitter Vk Yandex Mail.ru

Red Guitar - Die For You - таба, видео

Печатать
Просмотров: 95
----------------------------------------------------------------------------
                            Die For You
                                Red
----------------------------------------------------------------------------

This is definitely not what you would expect from Red, but I do like this song. It has a 
happy-go-lucky tone to it that makes it hard to believe it is a “Die For You” song. 
Plus, it has a guitar solo. Who doesn't like guitar solos? Enjoy!

Username: dkm817 (same on X box live)
Youtube Cover: http://www.youtube.com/watch?v=35BXfSKUwCQ
Email: guitardrums@rockfan.com

Guitar 1 Rhythmic (A  E  A  D  F# B  )
Guitar 2 Lead     (A  E  A  D  F# B  )

NOTE: This was exported off of guitar pro.

Guitar 1

      E  E  E  E  E  E  E  E     E  E  E  E  E  E  E  E
B ||--------------------------|--------------------------|
F#||--------------------------|--------------------------|
D ||--7--7--------x--7--7-----|-----------------------x--|
A ||--7--7--8-----x--7--7--5--|-----5-----5-----5-----x--|
E ||--5--5--8-----x--5--5--5--|-----5-----5-----5-----x--|
A ||--------8--------------5--|-----5-----5-----5--------|


  E  E  E  E  E  E  E  E     E  E  E  E  E  E  E  E
--------------------------|--------------------------|
--------------------------|--------------------------|
--7--7--------x--7--7-----|--------------------------|
--7--7--8-----x--7--7--5--|-----5-----5--------------|
--5--5--8-----x--5--5--5--|-----5-----5--------------|
--------8--------------5--|-----5-----5--2--2--3--2--|


  E  E  E  E  E  E  E  E     E  E  E  E  E  E  E  E
--------------------------|--------------------------|
--------------------------|--------------------------|
--7--7--------x--7--7-----|-----------------------x--|
--7--7--8-----x--7--7--5--|-----5-----5-----5-----x--|
--5--5--8-----x--5--5--5--|-----5-----5-----5-----x--|
--------8--------------5--|-----5-----5-----5--------|


  E  E  E  E  E  E  E  E     E  E  E  E  E  E  E  E
--------------------------|--------------------------|
--------------------------|--------------------------|
--7--7--------x--7--7-----|--------------------------|
--7--7--8-----x--7--7--5--|-----5-----5--------------|
--5--5--8-----x--5--5--5--|-----5-----5--------------|
--------8--------------5--|-----5-----5--2--2--3--2--|


  E  E  E  E  E  E  E  E     E  E  E  E  E  E  E  E
--------------------------|--------------------------|
--------------------------|--------------------------|
--7--7--------------------|--7--7--------------------|
--7--7--8-----8-----8-----|--7--7--5-----5-----5-----|
--5--5--8-----8-----8-----|--5--5--5-----5-----5-----|
--------8-----8-----8-----|--------5-----5-----5-----|


  E  E  E  E  E  E  E  E     E  E  E  E  E  E   E  E
--------------------------|---------------------------|
--------------------------|---------------------------|
--7--7--------------------|--7--7--------9--9--10--9--|
--7--7--8-----8-----8-----|--7--7--5-----9--9--10--9--|
--5--5--8-----8-----8-----|--5--5--5-----7--7---8--7--|
--------8-----8-----8-----|--------5------------------|


  E  E  E  E  E  E  E  E     E  E  E  E  E  E  E  E
--------------------------|--------------------------|
--------------------------|--------------------------|
--7--7--------x--7--7-----|-----------------------x--|
--7--7--8-----x--7--7--5--|-----5-----5-----5-----x--|
--5--5--8-----x--5--5--5--|-----5-----5-----5-----x--|
--------8--------------5--|-----5-----5-----5--------|


  E  E  E  E  E  E  E  E     E  E  E  E  E  E  E  E
--------------------------|--------------------------|
--------------------------|--------------8--8--6--6--|
--7--7--------x--7--7-----|--------------x--x--x--x--|
--7--7--8-----x--7--7--5--|-----5-----5--5--5--3--3--|
--5--5--8-----x--5--5--5--|-----5-----5--------------|
--------8--------------5--|-----5-----5--------------|


  E  E  E  E  E  E  E  E     E  E  E  E  E  E  E  E
--------------------------|--------------------------|
--------------------------|--------------8--8--6--6--|
--------------------------|--------------x--x--x--x--|
--5--5--5--5--5--5--5--5--|--5--5--5--5--5--5--3--3--|
--5--5--5--5--5--5--5--5--|--5--5--5--5--------------|
--5--5--5--5--5--5--5--5--|--5--5--5--5--------------|


  E  E  E  E  E  E  E  E     E  E  E  E  E  E  E  E
--------------------------|--------------------------|
--------------------------|--------------8--8--6--6--|
--------------------------|--------------x--x--x--x--|
--5--5--5--5--5--5--5--5--|--5--5--5--5--5--5--3--3--|
--5--5--5--5--5--5--5--5--|--5--5--5--5--------------|
--5--5--5--5--5--5--5--5--|--5--5--5--5--------------|


  E  E  E  E  E  E  E  E     E  E  E  E  E  E  E  E
--------------------------|--------------------------|
--------------------------|--------------8--8--6--6--|
--------------------------|--------------x--x--x--x--|
--8--8--8--8--8--8--8--8--|--8--8--8--8--5--5--3--3--|
--8--8--8--8--8--8--8--8--|--8--8--8--8--------------|
--8--8--8--8--8--8--8--8--|--8--8--8--8--------------|


  E  E  E  E  E  E  E  E     E  E  E  E  E  E  E  E
--------------------------|--------------------------|
--------------------------|--------------------------|
--5--5--------------------|--7--7--------x--7--7-----|
--5--5--------------------|--7--7--8-----x--7--7--5--|
--3--3--------------------|--5--5--8-----x--5--5--5--|
--------------2--2--3--2--|--------8--------------5--|


  E  E  E  E  E  E  E  E     E  E  E  E  E  E  E  E
--------------------------|--------------------------|
--------------------------|--------------------------|
-----------------------x--|--7--7--------x--7--7-----|
-----5-----5-----5-----x--|--7--7--8-----x--7--7--5--|
-----5-----5-----5-----x--|--5--5--8-----x--5--5--5--|
-----5-----5-----5--------|--------8--------------5--|


  E  E  E  E  E  E  E  E     E  E  E  E  E  E  E  E
--------------------------|--------------------------|
--------------------------|--------------------------|
--------------------------|--7--7--------------------|
-----5-----5--------------|--7--7--8-----8-----8-----|
-----5-----5--------------|--5--5--8-----8-----8-----|
-----5-----5--2--2--3--2--|--------8-----8-----8-----|


  E  E  E  E  E  E  E  E     E  E  E  E  E  E  E  E
--------------------------|--------------------------|
--------------------------|--------------------------|
--7--7--------------------|--7--7--------------------|
--7--7--5-----5-----5-----|--7--7--8-----8-----8-----|
--5--5--5-----5-----5-----|--5--5--8-----8-----8-----|
--------5-----5-----5-----|--------8-----8-----8-----|


  E  E  E  E  E  E   E  E     E  E  E  E  E  E  E  E
---------------------------|--------------------------|
---------------------------|--------------------------|
--7--7--------9--9--10--9--|--7--7--------------------|
--7--7--5-----9--9--10--9--|--7--7--8-----8-----8-----|
--5--5--5-----7--7---8--7--|--5--5--8-----8-----8-----|
--------5------------------|--------8-----8-----8-----|


  E  E  E  E  E  E  E  E     E  E  E  E  E  E  E  E
--------------------------|--------------------------|
--------------------------|--------------------------|
--7--7--------------------|--7--7--------x--7--7-----|
--7--7--5-----5-----5-----|--7--7--8-----x--7--7--5--|
--5--5--5-----5-----5-----|--5--5--8-----x--5--5--5--|
--------5-----5-----5-----|--------8--------------5--|


  E  E  E  E  E  E  E  E     E  E  E  E  E  E  E  E
--------------------------|--------------------------|
--------------------------|--------------8--8--6--6--|
--------------------------|--------------x--x--x--x--|
--------5-----5-----5--5--|-----5--------5--5--3--3--|
--------5-----5-----5--5--|-----5--------------------|
--------5-----5-----5--5--|-----5--------------------|


  E  E  E  E  E  E  E  E     E  E  E  E  E  E  E  E
--------------------------|--------------------------|
--------------------------|--------------8--8--6--6--|
--------------------------|--------------x--x--x--x--|
--5--5--5--5--5--5--5--5--|--5--5--5--5--5--5--3--3--|
--5--5--5--5--5--5--5--5--|--5--5--5--5--------------|
--5--5--5--5--5--5--5--5--|--5--5--5--5--------------|


  E  E  E  E  E  E  E  E     E  E  E  E  E  E  E  E
--------------------------|--------------------------|
--------------------------|--------------8--8--6--6--|
--------------------------|--------------x--x--x--x--|
--5--5--5--5--5--5--5--5--|--5--5--5--5--5--5--3--3--|
--5--5--5--5--5--5--5--5--|--5--5--5--5--------------|
--5--5--5--5--5--5--5--5--|--5--5--5--5--------------|


  E  E  E  E  E  E  E  E     E  E  E  E  E  E  E  E
--------------------------|--------------------------|
--------------------------|--------------8--8--6--6--|
--------------------------|--------------x--x--x--x--|
--8--8--8--8--8--8--8--8--|--8--8--8--8--5--5--3--3--|
--8--8--8--8--8--8--8--8--|--8--8--8--8--------------|
--8--8--8--8--8--8--8--8--|--8--8--8--8--------------|


  E  E  E  E  E  E  E  E     E  E  E  E  E  E  E  E
--------------------------|--------------------------|
--------------------------|--------------------------|
--------------------------|--5--5--x--x--5--5--------|
--8--8--8--8--8--8--8--8--|--5--5--x--x--5--5--8--8--|
--8--8--8--8--8--8--8--8--|--3--3--x--x--3--3--8--8--|
--8--8--8--8--8--8--8--8--|--------------------8--8--|


  E  E  E  E  E  E  E  E     E  E  E  E  E  E  E  E
--------------------------|--------------------------|
--------------------------|--------------8--8--6--6--|
--------------------------|--------------x--x--x--x--|
--5--5--5--5--5--5--5--5--|--5--5--5--5--5--5--3--3--|
--5--5--5--5--5--5--5--5--|--5--5--5--5--------------|
--5--5--5--5--5--5--5--5--|--5--5--5--5--------------|


  E  E  E  E  E  E  E  E     E  E  E  E  E  E  E  E
--------------------------|--------------------------|
--------------------------|--------------8--8--6--6--|
--------------------------|--------------x--x--x--x--|
--5--5--5--5--5--5--5--5--|--5--5--5--5--5--5--3--3--|
--5--5--5--5--5--5--5--5--|--5--5--5--5--------------|
--5--5--5--5--5--5--5--5--|--5--5--5--5--------------|


  E  E  E  E  E  E  E  E     E  E  E  E  E  E  E  E
--------------------------|--------------------------|
--------------------------|--------------8--8--6--6--|
--------------------------|--------------x--x--x--x--|
--8--8--8--8--8--8--8--8--|--8--8--8--8--5--5--3--3--|
--8--8--8--8--8--8--8--8--|--8--8--8--8--------------|
--8--8--8--8--8--8--8--8--|--8--8--8--8--------------|


  E  E  E  E  E  E  E  E     E  E  E  E  E  E  E  E
--------------------------|--------------------------|
--------------------------|--------------------------|
--------------------------|--5--5--------------------|
--8--8--8--8--8--8--8--8--|--5--5--------------------|
--8--8--8--8--8--8--8--8--|--3--3--------------------|
--8--8--8--8--8--8--8--8--|--------------------------|


   E   E   E   E   E   E   E   E     E  E  E  E   E   E  E  E
----------------------------------|----------------------------|
----------------------------------|----------------------------|
--10--10--10--10--10--10--10--10--|--9--9--9--9--10--10--9--9--|
--10--10--10--10--10--10--10--10--|--9--9--9--9--10--10--9--9--|
---8---8---8---8---8---8---8---8--|--7--7--7--7---8---8--7--7--|
----------------------------------|----------------------------|


  E  E  E  E  E  E  E  E     E  E  E  E  E  E  E  E
--------------------------|--------------------------|
--------------------------|--------------------------|
--------------------------|--------------------------|
--5--5--5--x--x--5--x--5--|--5--5--7--7--8--8--7--7--|
--5--5--5--x--x--5--x--5--|--5--5--7--7--8--8--7--7--|
--5--5--5--x--x--5--x--5--|--5--5--7--7--8--8--7--7--|


   E   E   E   E   E   E   E   E     E  E  E  E   E   E  E  E
----------------------------------|----------------------------|
----------------------------------|----------------------------|
--10--10--10--10--10--10--10--10--|--9--9--9--9--10--10--9--9--|
--10--10--10--10--10--10--10--10--|--9--9--9--9--10--10--9--9--|
---8---8---8---8---8---8---8---8--|--7--7--7--7---8---8--7--7--|
----------------------------------|----------------------------|


  E  E  E  E  E  E  E  E     E  E  E  E  E  E  E  E
--------------------------|--------------------------|-----|-----|
--------------------------|--------------------------|-----|-----|
--5--5--5--5--x--5--x--5--|--7--7--7--7--5--5--3--3--|-----|-----|
--5--5--5--5--x--5--x--5--|--7--7--7--7--5--5--3--3--|-----|-----|
--3--3--3--3--x--3--x--3--|--5--5--5--5--3--3--1--1--|-----|-----|
--------------------------|--------------------------|-----|-----|


  E  E  E  E  E  E  E  E           E  E  E  E  E  E  E  E
--------------------------|-----|--------------------------|
--------------------------|-----|--------------------------|
--------------------------|-----|--------------------------|
--------------------------|-----|--5--5--5--5--5--5--5--5--|
--5--5--------x--5--5-----|-----|--5--5--5--5--5--5--5--5--|
--------8--------------5--|-----|--5--5--5--5--5--5--5--5--|


  E  E  E  E  E  E  E  E     E  E  E  E  E  E  E  E
--------------------------|--------------------------|
--------------8--8--6--6--|--------------------------|
--------------x--x--x--x--|--------------------------|
--5--5--5--5--5--5--3--3--|--5--5--5--5--5--5--5--5--|
--5--5--5--5--------------|--5--5--5--5--5--5--5--5--|
--5--5--5--5--------------|--5--5--5--5--5--5--5--5--|


  E  E  E  E  E  E  E  E     E  E  E  E  E  E  E  E
--------------------------|--------------------------|
--------------8--8--6--6--|--------------------------|
--------------x--x--x--x--|--------------------------|
--5--5--5--5--5--5--3--3--|--8--8--8--8--8--8--8--8--|
--5--5--5--5--------------|--8--8--8--8--8--8--8--8--|
--5--5--5--5--------------|--8--8--8--8--8--8--8--8--|


  E  E  E  E  E  E  E  E     E  E  E  E  E  E  E  E
--------------------------|--------------------------|
--------------8--8--6--6--|--------------------------|
--------------x--x--x--x--|--------------------------|
--8--8--8--8--5--5--3--3--|--8--8--8--8--8--8--8--8--|
--8--8--8--8--------------|--8--8--8--8--8--8--8--8--|
--8--8--8--8--------------|--8--8--8--8--8--8--8--8--|


  E  E  E  E  E  E  E  E     E  E  E  E  E  E  E  E
--------------------------|--------------------------|
--------------------------|--------------------------|
--5--5--------5--5--------|--------------------------|
--5--5--------5--5--8--8--|--5--5--5--5--5--5--5--5--|
--3--3--------3--3--8--8--|--5--5--5--5--5--5--5--5--|
--------------------8--8--|--5--5--5--5--5--5--5--5--|


  E  E  E  E  E  E  E  E     E  E  E  E  E  E  E  E
--------------------------|--------------------------|
--------------8--8--6--6--|--------------------------|
--------------x--x--x--x--|--------------------------|
--5--5--5--5--5--5--3--3--|--5--5--5--5--5--5--5--5--|
--5--5--5--5--------------|--5--5--5--5--5--5--5--5--|
--5--5--5--5--------------|--5--5--5--5--5--5--5--5--|


  E  E  E  E  E  E  E  E     E  E  E  E  E  E  E  E
--------------------------|--------------------------|
--------------8--8--6--6--|--------------------------|
--------------x--x--x--x--|--------------------------|
--5--5--5--5--5--5--3--3--|--8--8--8--8--8--8--8--8--|
--5--5--5--5--------------|--8--8--8--8--8--8--8--8--|
--5--5--5--5--------------|--8--8--8--8--8--8--8--8--|


  E  E  E  E  E  E  E  E     E  E  E  E  E  E  E  E
--------------------------|--------------------------|
--------------8--8--6--6--|--------------------------|
--------------x--x--x--x--|--------------------------|
--8--8--8--8--5--5--3--3--|--8--8--8--8--8--8--8--8--|
--8--8--8--8--------------|--8--8--8--8--8--8--8--8--|
--8--8--8--8--------------|--8--8--8--8--8--8--8--8--|


  E  E  E  E  E  E  E  E     E  E  E  E  E  E  E  E
--------------------------|--------------------------|
--------------------------|--------------------------|
--5--5--------5--5--------|--7--7--------x--7--7-----|
--5--5--------5--5--8--8--|--7--7--8-----x--7--7--5--|
--3--3--------3--3--8--8--|--5--5--8-----x--5--5--5--|
--------------------8--8--|--------8--------------5--|


  E  E  E  E  E  E  E  E     E  E  E  E  E  E  E  E
--------------------------|--------------------------|
--------------------------|--------------------------|
-----------------------x--|--7--7--------x--7--7-----|
-----5-----5-----5-----x--|--7--7--8-----x--7--7--5--|
-----5-----5-----5-----x--|--5--5--8-----x--5--5--5--|
-----5-----5-----5--------|--------8--------------5--|


  E  E  E  E  E  E  E  E
--------------------------||
--------------------------||
--------------------------||
-----5-----5--------------||
-----5-----5--------------||
-----5-----5--2--2--3--2--||

Guitar 2

      E  E  E  E  E  E  E  E     E  E  E  E  E  E  E  E
B ||--------------------------|--------------------------|
F#||--------------------------|--------------------------|
D ||--7--7--------x--7--7-----|-----------------------x--|
A ||--7--7--8-----x--7--7--5--|-----5-----5-----5-----x--|
E ||--5--5--8-----x--5--5--5--|-----5-----5-----5-----x--|
A ||--------8--------------5--|-----5-----5-----5--------|


  E  E  E  E  E  E  E  E     E  E  E  E  E  E   E  E
--------------------------|---------------------------|
--------------------------|---------------------------|
--7--7--------x--7--7-----|--------------9--9--10--9--|
--7--7--8-----x--7--7--5--|-----5-----5--9--9--10--9--|
--5--5--8-----x--5--5--5--|-----5-----5--7--7---8--7--|
--------8--------------5--|-----5-----5---------------|


  E  E  E  E  E  E  E  E     E  E  E  E  E  E  E  E
--------------------------|--------------------------|
--------------------------|--------------------------|
--7--7--------x--7--7-----|-----------------------x--|
--7--7--8-----x--7--7--5--|-----5-----5-----5-----x--|
--5--5--8-----x--5--5--5--|-----5-----5-----5-----x--|
--------8--------------5--|-----5-----5-----5--------|


  E  E  E  E  E  E  E  E     E  E  E  E  E  E   E  E
--------------------------|---------------------------|-----|-----|-----|-----|
--------------------------|---------------------------|-----|-----|-----|-----|
--7--7--------x--7--7-----|--------------9--9--10--9--|-----|-----|-----|-----|
--7--7--8-----x--7--7--5--|-----5-----5--9--9--10--9--|-----|-----|-----|-----|
--5--5--8-----x--5--5--5--|-----5-----5--7--7---8--7--|-----|-----|-----|-----|
--------8--------------5--|-----5-----5---------------|-----|-----|-----|-----|


  E  E  E  E  E  E  E  E     E  E  E  E  E  E  E  E
--------------------------|--------------------------|
--------------------------|--------------------------|
--7--7--------x--7--7-----|-----------------------x--|
--7--7--8-----x--7--7--5--|-----5-----5-----5-----x--|
--5--5--8-----x--5--5--5--|-----5-----5-----5-----x--|
--------8--------------5--|-----5-----5-----5--------|


  E  E  E  E  E  E  E  E     E  E  E  E  E  E  E  E
--------------------------|--------------------------|
--------------------------|--------------8--8--6--6--|
--7--7--------x--7--7-----|--------------x--x--x--x--|
--7--7--8-----x--7--7--5--|-----5-----5--5--5--3--3--|
--5--5--8-----x--5--5--5--|-----5-----5--------------|
--------8--------------5--|-----5-----5--------------|


  E  E  E  E  E  E  E  E     E  E  E  E  E  E  E  E
--------------------------|--------------------------|
--------------------------|--------------8--8--6--6--|
--------------------------|--------------x--x--x--x--|
--5--5--5--5--5--5--5--5--|--5--5--5--5--5--5--3--3--|
--5--5--5--5--5--5--5--5--|--5--5--5--5--------------|
--5--5--5--5--5--5--5--5--|--5--5--5--5--------------|


  E  E  E  E  E  E  E  E     E  E  E  E  E  E  E  E
--------------------------|--------------------------|
--------------------------|--------------8--8--6--6--|
--------------------------|--------------x--x--x--x--|
--5--5--5--5--5--5--5--5--|--5--5--5--5--5--5--3--3--|
--5--5--5--5--5--5--5--5--|--5--5--5--5--------------|
--5--5--5--5--5--5--5--5--|--5--5--5--5--------------|


  E  E  E  E  E  E  E  E     E  E  E  E  E  E  E  E
--------------------------|--------------------------|
--------------------------|--------------8--8--6--6--|
--------------------------|--------------x--x--x--x--|
--8--8--8--8--8--8--8--8--|--8--8--8--8--5--5--3--3--|
--8--8--8--8--8--8--8--8--|--8--8--8--8--------------|
--8--8--8--8--8--8--8--8--|--8--8--8--8--------------|


  E  E  E  E  E  E  E  E     E  E  E  E  E  E  E  E
--------------------------|--------------------------|
--------------------------|--------------------------|
--5--5--------------------|--7--7--------x--7--7-----|
--5--5--------------------|--7--7--8-----x--7--7--5--|
--3--3--------7--7--8--7--|--5--5--8-----x--5--5--5--|
--------------------------|--------8--------------5--|


  E  E  E  E  E  E  E  E     E  E  E  E  E  E  E  E
--------------------------|--------------------------|
--------------------------|--------------------------|
-----------------------x--|--7--7--------x--7--7-----|
-----5-----5-----5-----x--|--7--7--8-----x--7--7--5--|
-----5-----5-----5-----x--|--5--5--8-----x--5--5--5--|
-----5-----5-----5--------|--------8--------------5--|


  E  E  E  E  E  E   E  E
---------------------------|-----|-----|-----|-----|-----|-----|
---------------------------|-----|-----|-----|-----|-----|-----|
--------------9--9--10--9--|-----|-----|-----|-----|-----|-----|
-----5-----5--9--9--10--9--|-----|-----|-----|-----|-----|-----|
-----5-----5--7--7---8--7--|-----|-----|-----|-----|-----|-----|
-----5-----5---------------|-----|-----|-----|-----|-----|-----|


  E  E  E  E  E  E  E  E     E  E  E  E  E  E  E  E
--------------------------|--------------------------|
--------------------------|--------------------------|
--7--7--------x--7--7-----|--------------------------|
--7--7--8-----x--7--7--5--|--------5-----5-----5--5--|
--5--5--8-----x--5--5--5--|--------5-----5-----5--5--|
--------8--------------5--|--------5-----5-----5--5--|


  E  E  E  E  E  E  E  E     E  E  E  E  E  E  E  E
--------------------------|--------------------------|
--------------8--8--6--6--|--------------------------|
--------------x--x--x--x--|--------------------------|
-----5--------5--5--3--3--|--5--5--5--5--5--5--5--5--|
-----5--------------------|--5--5--5--5--5--5--5--5--|
-----5--------------------|--5--5--5--5--5--5--5--5--|


  E  E  E  E  E  E  E  E     E  E  E  E  E  E  E  E
--------------------------|--------------------------|
--------------8--8--6--6--|--------------------------|
--------------x--x--x--x--|--------------------------|
--5--5--5--5--5--5--3--3--|--5--5--5--5--5--5--5--5--|
--5--5--5--5--------------|--5--5--5--5--5--5--5--5--|
--5--5--5--5--------------|--5--5--5--5--5--5--5--5--|


  E  E  E  E  E  E  E  E     E  E  E  E  E  E  E  E
--------------------------|--------------------------|
--------------8--8--6--6--|--------------------------|
--------------x--x--x--x--|--------------------------|
--5--5--5--5--5--5--3--3--|--8--8--8--8--8--8--8--8--|
--5--5--5--5--------------|--8--8--8--8--8--8--8--8--|
--5--5--5--5--------------|--8--8--8--8--8--8--8--8--|


  E  E  E  E  E  E  E  E     E  E  E  E  E  E  E  E
--------------------------|--------------------------|
--------------8--8--6--6--|--------------------------|
--------------x--x--x--x--|--------------------------|
--8--8--8--8--5--5--3--3--|--8--8--8--8--8--8--8--8--|
--8--8--8--8--------------|--8--8--8--8--8--8--8--8--|
--8--8--8--8--------------|--8--8--8--8--8--8--8--8--|


  E  E  E  E  E  E  E  E     E  E  E  E  E  E  E  E
--------------------------|--------------------------|
--------------------------|--------------------------|
--5--5--x--x--5--5--------|--------------------------|
--5--5--x--x--5--5--8--8--|--5--5--5--5--5--5--5--5--|
--3--3--x--x--3--3--8--8--|--5--5--5--5--5--5--5--5--|
--------------------8--8--|--5--5--5--5--5--5--5--5--|


  E  E  E  E  E  E  E  E     E  E  E  E  E  E  E  E
--------------------------|--------------------------|
--------------8--8--6--6--|--------------------------|
--------------x--x--x--x--|--------------------------|
--5--5--5--5--5--5--3--3--|--5--5--5--5--5--5--5--5--|
--5--5--5--5--------------|--5--5--5--5--5--5--5--5--|
--5--5--5--5--------------|--5--5--5--5--5--5--5--5--|


  E  E  E  E  E  E  E  E     E  E  E  E  E  E  E  E
--------------------------|--------------------------|
--------------8--8--6--6--|--------------------------|
--------------x--x--x--x--|--------------------------|
--5--5--5--5--5--5--3--3--|--8--8--8--8--8--8--8--8--|
--5--5--5--5--------------|--8--8--8--8--8--8--8--8--|
--5--5--5--5--------------|--8--8--8--8--8--8--8--8--|


  E  E  E  E  E  E  E  E     E  E  E  E  E  E  E  E
--------------------------|--------------------------|
--------------8--8--6--6--|--------------------------|
--------------x--x--x--x--|--------------------------|
--8--8--8--8--5--5--3--3--|--8--8--8--8--8--8--8--8--|
--8--8--8--8--------------|--8--8--8--8--8--8--8--8--|
--8--8--8--8--------------|--8--8--8--8--8--8--8--8--|


  E  E  E  E  E  E  E  E     S  S  S E  S  S S S  S  S E  S  S S
--------------------------|--------------------------------------|
--------------------------|--------------------------------------|
--5--5--------------------|--------------------------------------|
--5--5--------------------|--8-10-10-L--8-10-8-8-10-10-L--8-10-8-|
--3--3--------------------|--------------------------------------|
--------------------------|--------------------------------------|


   E   E   E   E   E   E   E   E      E  E   E  E  E  E  E  E
----------------------------------|----------------------------|-----|
----------------------------------|----------------------------|-----|
------10--------------------------|----------------------------|-----|
--12------12--11--10------10------|----------------------------|-----|
----------------------13------11--|--10--L\--------------------|-----|
----------------------------------|----------------------------|-----|


  S  S  S E  S  S S S  S  S E  S  S S    E   E  E   E  E   E  E   E
--------------------------------------|------------------------------|
--------------------------------------|----------------8--11--8------|
--------------------------------------|--7--10--7--10------------10--|
--8-10-10-L--8-10-8-8-10-10-L--8-10-8-|------------------------------|
--------------------------------------|------------------------------|
--------------------------------------|------------------------------|


  Q    S S  S S S  S  E  S  S S S     E   E  S  E  S  S S  E   S S S  S
----------------------------------|-------------------------------------|
--8----L--------------------------|-------------------------------------|
-------------------------7-10-7---|-------------------------------------|
---------8-10-8-8-10-10---------8-|--12--11--8-11--8-10-8---------------|
----------------------------------|-----------------------10--10-8-7----|
----------------------------------|----------------------------------10-|


  W                    W
--------------------|-------------------|-------------------|
--------------------|-------------------|-------------------|
--------------------|-------------------|-------------------|
--------------------|-------------------|-------------------|
--------------------|-------------------|-------------------|
--8b----------------|--L----------------|-------------------|


                      E  E  E  E  E  E  E  E     E  E  E  E  E  E  E  E
-------------------|--------------------------|--------------------------|
-------------------|--------------------------|--------------8--8--6--6--|
-------------------|--------------------------|--------------x--x--x--x--|
-------------------|--5--5--5--5--5--5--5--5--|--5--5--5--5--5--5--3--3--|
-------------------|--5--5--5--5--5--5--5--5--|--5--5--5--5--------------|
-------------------|--5--5--5--5--5--5--5--5--|--5--5--5--5--------------|


  E  E  E  E  E  E  E  E     E  E  E  E  E  E  E  E
--------------------------|--------------------------|
--------------------------|--------------8--8--6--6--|
--------------------------|--------------x--x--x--x--|
--5--5--5--5--5--5--5--5--|--5--5--5--5--5--5--3--3--|
--5--5--5--5--5--5--5--5--|--5--5--5--5--------------|
--5--5--5--5--5--5--5--5--|--5--5--5--5--------------|


  E  E  E  E  E  E  E  E     E  E  E  E  E  E  E  E
--------------------------|--------------------------|
--------------------------|--------------8--8--6--6--|
--------------------------|--------------x--x--x--x--|
--8--8--8--8--8--8--8--8--|--8--8--8--8--5--5--3--3--|
--8--8--8--8--8--8--8--8--|--8--8--8--8--------------|
--8--8--8--8--8--8--8--8--|--8--8--8--8--------------|


  E  E  E  E  E  E  E  E     E  E  E  E  E  E  E  E
--------------------------|--------------------------|
--------------------------|--------------------------|
--------------------------|--5--5--------5--5--------|
--8--8--8--8--8--8--8--8--|--5--5--------5--5--8--8--|
--8--8--8--8--8--8--8--8--|--3--3--------3--3--8--8--|
--8--8--8--8--8--8--8--8--|--------------------8--8--|


  E  E  E  E  E  E  E  E     E  E  E  E  E  E  E  E
--------------------------|--------------------------|
--------------------------|--------------8--8--6--6--|
--------------------------|--------------x--x--x--x--|
--5--5--5--5--5--5--5--5--|--5--5--5--5--5--5--3--3--|
--5--5--5--5--5--5--5--5--|--5--5--5--5--------------|
--5--5--5--5--5--5--5--5--|--5--5--5--5--------------|


  E  E  E  E  E  E  E  E     E  E  E  E  E  E  E  E
--------------------------|--------------------------|
--------------------------|--------------8--8--6--6--|
--------------------------|--------------x--x--x--x--|
--5--5--5--5--5--5--5--5--|--5--5--5--5--5--5--3--3--|
--5--5--5--5--5--5--5--5--|--5--5--5--5--------------|
--5--5--5--5--5--5--5--5--|--5--5--5--5--------------|


  E  E  E  E  E  E  E  E     E  E  E  E  E  E  E  E
--------------------------|--------------------------|
--------------------------|--------------8--8--6--6--|
--------------------------|--------------x--x--x--x--|
--8--8--8--8--8--8--8--8--|--8--8--8--8--5--5--3--3--|
--8--8--8--8--8--8--8--8--|--8--8--8--8--------------|
--8--8--8--8--8--8--8--8--|--8--8--8--8--------------|


  E  E  E  E  E  E  E  E     E  E  E  E  E  E  E  E
--------------------------|--------------------------|
--------------------------|--------------------------|
--------------------------|--5--5--------5--5--------|
--8--8--8--8--8--8--8--8--|--5--5--------5--5--8--8--|
--8--8--8--8--8--8--8--8--|--3--3--------3--3--8--8--|
--8--8--8--8--8--8--8--8--|--------------------8--8--|


  E  E  E  E  E  E  E  E     E  E  E  E  E  E  E  E
--------------------------|--------------------------|
--------------------------|--------------------------|
--7--7--------x--7--7-----|-----------------------x--|
--7--7--8-----x--7--7--5--|-----5-----5-----5-----x--|
--5--5--8-----x--5--5--5--|-----5-----5-----5-----x--|
--------8--------------5--|-----5-----5-----5--------|


  E  E  E  E  E  E  E  E     E  E  E  E  E  E   E  E
--------------------------|---------------------------||
--------------------------|---------------------------||
--7--7--------x--7--7-----|--------------9--9--10--9--||
--7--7--8-----x--7--7--5--|-----5-----5--9--9--10--9--||
--5--5--8-----x--5--5--5--|-----5-----5--7--7---8--7--||
--------8--------------5--|-----5-----5---------------||


Duration Legend
---------------
W - whole
H - half
Q - quarter
E - 8th
S - 16th
T - 32nd
X - 64th
. - note dotted
|-n-|  - n-tuplets


Tablature Legend
----------------
L - tied note
x - dead note
g - grace note
(n) - ghost note
> - accentuded note
NH - natural harmonic
AH - artificial harmonic
TH - tapped harmonic
SH - semi harmonic
PH - pitch harmonic
h - hammer on
p - pull off
b - bend
br - bendRelease
pb - preBend
pbr - preBendRelease
brb - bendReleaseBend
\n/ - tremolo bar dip
\n - tremolo bar dive
-/n - tremolo bar Release up
/n\ - tremolo bar inverted dip
/n - tremolo bar return
-\n - tremolo bar Release down
S - shift slide
s - legato slide
/ -  slide into from below or out of upwards
\ -  slide into from above or out of downwards
~ - vibrato
W - wide vibrato
tr - trill
TP - tremolo picking
T - tapping
S - slap
P - pop
< - fade in
^ - brush up
v - brush down


That is all! I hope this helped, and be sure to check out my cover if you are
having problems with the tab. Thanks, oh and one last thing... ROCK OUT!!!!
Добавлено: 30.08.2013
Другие материалы по этой песне:
  • Аккорды и текст

Страница создана 30.08.2013
http://primanota.ru/red-guitar/die-for-you-chords.htm
Привет, Гость.
Предлагаем пройти революционный курс по гитаре.
Подарок от PrimaNota.Ru, забирай!