PrimaNota.ru - самый крупный в мире бесплатный архив песенных текстов, аккордов, табулатур и нот


Red Guitar - Damage - таба, видео

Регистрация Запомнить меня
Войти через:  Facebook Google Twitter Vk Yandex Mail.ru

Red Guitar - Damage - таба, видео

Печатать
Просмотров: 128
-------------------------------------------------------------------------------
                               RED - Damage
-------------------------------------------------------------------------------
Tabbed by: GaleForceRock
E-mail: galeforce100@icloud.com

Tuning: Drop A

This tab is also valid for Damage (Recalibrated).

Also check out my Guitar Pro tab of this song.
Unfortunately Guitar Pro 5 format is unable to support the type of harmonics, so they are
inaccurate on the guitar pro tab.

Email galeforce100@icloud.com for a TuxGuitar (.tg) file which includes all the harmonics
as they should be.

PINCH HARMONICS
There are two types of pinch harmonic in this song, Pinch Harmonic [5] and Pinch Harmonic [4],
shown in this tab as +5 and +4.
A Pinch Harmonic [5] creates the same note at the same pitch as an artificial harmonic 5 frets
above the note which is being played. Similarly, a Pinch Harmonic [4] creates the same note at
the same pitch as an artificial harmonic 4 frets above the note which is being played.
In order to find the spots for these pinch harmonics, a Pinch Harmonic [5] on the fifth fret
will be the same distance from the bridge as the fifth fret (the fret, not the gap) is from the
tenth fret (the fret, not the gap) and similarly a Pinch Harmonic [5] on the sixth fret will be
the same distance from the bridge as the sixth fret is from the eleventh fret. In the same way,
a Pinch Harmonic [4] on the fifth fret will be the same distance from the bridge as the fifth
fret is from the ninth fret... You get the idea (I hope).

Intro Part 1
B |--------------------------------------------------------------|
F#|--------------------------------------------------------------|
D |--------------------------------------------------------------|
A |--------------------------------------------------------------|
E |-5-------5----------------------8-------5---------------------|
A |-----0----------0---0-0-0-3-0-------0----------0---0-0-0-3-0--|
            +5     *   * * * * *           +4     *   * * * * *

B |--------------------------------------------------------------|
F#|--------------------------------------------------------------|
D |--------------------------------------------------------------|
A |--------------------------------------------------------------|
E |-5-------5----------------------8-------5--------------6------|
A |-----0----------0---0-0-0-3-0-------0----------0---0-0--------|
            +5     *   * * * * *           +4     *   * * +5

Intro Part 2
B |--------------------------------------------------------------|
F#|--------------------------------------------------------------|
D |--------------------------------------------------------7-----|
A |-------------------------7------------------------------------| x2
E |-----------------5------------------------------5-------------|
A |-0---0-0-0-3-0-------0----------0---0-0-0-3-0-------0---------|
    *   * * * * *           +5     *   * * * * *   +5      +4

Verse 1 (x6)
B |--------------------------------------------------------------|
F#|--------------------------------------------------------------|
D |--------------------------------------------------------------|
A |--------------------------------------------------------------|
E |-------------5---------------5---------------5----------------|
A |-0---0-0-0-3-----0---0-0-0-3-----0---0-0-0-3-----0---0---1----|
    *   * * * * *   *   * * * * *   *   * * * * *   *   *

Chorus 1
B |--------------------------------------------------------------|
F#|-----------------20------------------------------18-----------|
D |--------------------------------------------------------------|
A |-0---0---0---0---17--------------0---0---0---0---15-----------|
E |-0---0---0---0-------------------0---0---0---0----------------|
A |-0---0---0---0-------------------0---0---0---0----------------|

B |--------------------------------------------------------------|
F#|--------------------------------------------------------------|
D |--------------------------------------------------------------|
A |-0---8---5---3---0---8---7---5---0---8---5---3---0---8---7---5|
E |-0---8---5---3---0---8---7---5---0---8---5---3---0---8---7---5|
A |-0---8---5---3---0---8---7---5---0---8---5---3---0---8---7---5|

B |--------------------------------------------------------------|
F#|-----------------20------------------------------22-----------|
D |--------------------------------------------------------------|
A |-0---0---0---0---17--------------0---0---0---0---19-----------|
E |-0---0---0---0-------------------0---0---0---0----------------|
A |-0---0---0---0-------------------0---0---0---0----------------|

B |--------------------------------------------------------------|
F#|--------------------------------------------------------------|
D |--------------------------------------------------------------|
A |-0---8---5---3---0---8---7---5---0---8---5---3---0---8---7---5|
E |-0---8---5---3---0---8---7---5---0---8---5---3---0---8---7---5|
A |-0---8---5---3---0---8---7---5---0---8---5---3---0---8---7---5|

Interlude (same as intro part 2)

Verse 2 (same as verse 1) (x4)

Chorus 2 (same as chorus 1)

Bridge Part 1
B |--------------------------------------------------------------------------------|
F#|--------------------------------------------------------------------------------|
D |--------------------------------------------------------------------------------|
A |-0------------------------10-------8--------0----------------10-------5---------|
E |-0-(x12)------------------10-(x4)--8-(x4)---0-(x8)-----------10-(x4)--5-(x16)---|
A |-0------------------------10-------8--------0----------------10-------5---------|

Bridge Part 2 (guitar silent)

Bridge Part 3 (x4)
B |--------------------------------------------------------------|
F#|--------------------------------------------------------------|
D |--------------------------------------------------------------|
A |--------------------------------------------------------------|
E |--------------------------------------------------8-----------|
A |-0---0-0-3-6-0---0---9--------0---0-0-3-6-0---0-------9---6---|
    *   * * * * *   *            *   * * * * *   *

Bridge Part 4 (x4, fourth time end at '↓')       ↓
B |--------------------------------------------------------------|
F#|--------------------------------------------------------------|
D |-------------------------10-----------------------------------|
A |-0---0---0---0---1---0-----------0---0---0---0---1---0---8---6|
E |-0---0---0---0---1---0---8-------0---0---0---0---1---0---8---6|
A |-0---0---0---0---1---0-----------0---0---0---0---1---0---8---6|

Bridge Part 5 (same as bridge part 1)

Chorus 3 (same as chorus 1)

Chorus 4 (same as chorus 1)

Outro (same as intro part 2)

Thanks for reading the tab, please rate and comment corrections!

************************************

| *   palm mute
| /   slide up
| \   slide down
| h   hammer-on
| p   pull-off
| ~   vibrato
| +   harmonic
| x   Mute note
| b   Bend
| pb  Pre-bend
| br  Bend release
| pbr Pre-bend release
| brb Bend release bend

************************************
Добавлено: 02.10.2015
Другие материалы по этой песне:
  • Аккорды и текст

Страница создана 02.10.2015
http://primanota.ru/red-guitar/damage-chords.htm
Привет, Гость.
Предлагаем пройти революционный курс по гитаре.
Подарок от PrimaNota.Ru, забирай!