PrimaNota.ru - самый крупный в мире бесплатный архив песенных текстов, аккордов, табулатур и нот


Red Fang - Wires - таба, бас-таба, видео

Регистрация Запомнить меня
Войти через:  Facebook Google Twitter Vk Yandex Mail.ru

Red Fang - Wires - таба, бас-таба, видео

Печатать
Просмотров: 176
-----------------------------------------------------------------------------
                       Wires - Red Fang
                         Album: Wires
-----------------------------------------------------------------------------

Tabbed by: Panji Brotoisworo
Email: panji66(AT)hotmail.com (Replace the 'at')

E-mail me for comments or PM me on my UG Profile - "Esparko"


Legend

| /  slide up
| \  slide down
| b  Bend the string
| h  hammer-on
| p  pull-off
| ~  vibrato
| x  Mute note
================



Tuning: EADGBe



They use Fuzz on this song.

I think I should've tabbed this in Drop-D because in the Outro
there's a section where it requires a low D but I already
tabbed out everything.
I substituted that with an open A and D string which is part
of a low D5 powechord. It still sounds alright.

UPDATE : August 17, 2011. Just corrected a minor mistake.

=======
Intro
=======

e|-----------------------------------------------------------------------|
B|-----------------------------------------------------------------------|
G|-----------------------------------------------------------------------|
D|-----------------------------------------------------------------------|
A|-------------------9-9-9-9-9-9-9-9-9-9-9-9-9-9-9-9-9-9-9-9-9-9-9-9-----|
E|-7-7-7-7-7-7-7-7-5-7-7-7-7-7-7-7-7-7-7-7-7-7-7-7-7-7-7-7-7-7-7-7-7-----|

e|--------------------------------------------------------------------------|
B|--------------------------------------------------------------------------|
G|--------------------------------------------------------------------------|
D|-------------------7/9----------------------------------------------------|
A|-------------------------8-8-8-8-8-8-8-8-8-8-8-8-8-8-8-8-8-8-8\7----7\5-0-|
E|-5-5-5-5-5-5-5/7-7-----7-7-7-7-7-7-7-7-7-7-7-7-7-7-7-7-7-7-7-----10-------|

After you play that section 2 times, then you play these chords before 
playing the verse:

e|---------------|
B|---------------|
G|-7---11--------|
D|-7-7-11-10-----|
A|-5-7-9--10-----|
E|---5----8------|




=======
Verse
=======



e|-------------------|----------------------------------|
B|-------------------|----------------------------------|
G|-------------------|----------------------------------|
D|-------------------|----------------------------------|
A|-9-9-9-9-7-9-9-9-9-|-8-8-8-8-8-8-8-8-8-8-8-8-8-8-8-8--|
E|-7-7-7-7-5-7-7-7-7-|-6-6-6-6-6-6-6-6-6-6-6-6-6-6-6-6--|

Play the first bar 4 times before proceeding into the next bar which you
only play one time through.

e|------------------|
B|---5b6-3----------|
G|------------------|
D|------------------|
A|------------------|
E|------------------|

This is the lead part that you hear in the background
There's other lead parts as well but it just sounds like he's just
improving so you can add in a solo.
You can use something like a B Pentatonic.
     
e|----------------------------------|
B|------------------------------3---|
G|--7-7-7-7-7--11-11-11-11--3---2---|
D|--7-7-7-7-7--11-11-11-11--3-4-0---|
A|--5-5-5-5-5--9--9--9--9---1-4-----|
E|----------------------------2-----|

The verse ends with this riff.
Then you play the intro riff again.
Then you play the verse riff again.



========
Bridge
========



The 2 guitars harmonize in this part. Sorry, but I can't seem to
get the harmony right. So I'm only tabbing out one of the
guitars.

Guitar 1:

e|-------------------------------------------------|
B|-------------------------------------------------|
G|-------------------------------------------------|
D|-----------------9------------9-7-----9\3---2-0--|
A|-9-----------------9--------9--------------------|
E|-----10-7--7-10------7-10------------------------|

e|-------------------------------------------------|
B|-------------------------------------------------|
G|-------------------------------------------------|
D|--4----5--5--4--5--7--8/11--9--12--14b15---------|
A|-----5-------------------------------------------|
E|-------------------------------------------------|





e|---------------|
B|---------------|
G|-7---11--------|
D|-7-7-11-10-----|
A|-5-7-9--10-----|
E|---5----8------|

Then you play the riff above before going to the outro




========
Outro
========



e|----------------------------------------------------|
B|----------------------------------------------------|
G|----------------------------------------------------|
D|-9-9-7/9--9--7/9-------------------4-4-5-4--2-0-----|
A|-9-9-7/9--9--7/9---7h8p7p5---------4-4-5-4--2-0-----|
E|-7-7-5/7--7--5/7-----------7-5-3-5-2-2-3-2--0-------|

That's the outro riff, then you also play this riff time to time:

e|---------------|
B|---------------|
G|-7---11--------|
D|-7-7-11-10-----|
A|-5-7-9--10-----|
E|---5----8------|


And that's it.
There's a bit of soloing in the background during the outro, you can 
use a B pentatonic or something.
Добавлено: 18.05.2012
Другие материалы по этой песне:

Страница создана 30.03.2012
http://primanota.ru/red-fang/wires-chords.htm
Привет, Гость.
Предлагаем пройти революционный курс по гитаре.
Подарок от PrimaNota.Ru, забирай!