PrimaNota.ru - самый крупный в мире бесплатный архив песенных текстов, аккордов, табулатур и нот


Red Fang - Painted Parade - таба, видео

Регистрация Запомнить меня
Войти через:  Facebook Google Twitter Vk Yandex Mail.ru

Red Fang - Painted Parade - таба, видео

Печатать
Просмотров: 107
Уроки эстрадного вокала в Санкт-Петербурге
Red fang-painted parade
Drop D tuning 
Tabbed by ear 
Enjoy

INTRO:
|-*------
|--*-----
|---*----
|----*---
|-----*--
|------*-
*strum behind nut*


VERSE:
|---------------------------------------------------------------------------------|
|---------------------------------------------------------------------------------|
|----------------------------------10-10-------------------------------------10b--|
|--------10-10--13-13--10-----------------13-13--10---------10-10--13-13-10-------|
|---------------------------------------------------------------------------------|
|-13p-10-------------------13p-10--------------------13p-10-----------------------|


|---------------------------------------------------------------------------------|
|---------------------------------------------------------------------------------|
|----------------------------------10-10-------------------------------------8b---|
|--------10-10--13-13--10-----------------13-13--10---------10-10--13-13-10-------|
|---------------------------------------------------------------------------------|
|-13p-10-------------------13p-10--------------------13p-10-----------------------|

|---------------------------------------------------------------------------------|
|---------------------------------------------------------------------------------|
|----------------------------------10-10-------------------------------------10b--|
|--------10-10--13-13--10-----------------13-13--10---------10-10--13-13-10-------|
|---------------------------------------------------------------------------------|
|-13p-10-------------------13p-10--------------------13p-10-----------------------|

|---------------------------------------------------------------------------------|
|---------------------------------------------------------------------------------|
|----------------------------------10-10-------------------------------------10b--|
|--------10-10--13-13--10-----------------13-13--10---------10-10--13-13-10-------|
|---------------------------------------------------------------------------------|
|-13p-10-------------------13p-10--------------------13p-10-----------------------|


CHORUS: guitar 1
|-----|
|-----|
|-10b-| sustains the bend note throughout the chorus
|-----|
|-----|
|-----|


Guitar 2
|-----------------|
|-----------------|
|-----------------|
|-3-3-3h4p3--1-3--|
|-3-3-3h4p3--1-3--|
|-3-3-3h4p3--1-3--|


VERSE 2:
|---------------------------------------------------------------------------------|
|---------------------------------------------------------------------------------|
|----------------------------------10-10-------------------------------------10b--|
|--------10-10--13-13--10-----------------13-13--10---------10-10--13-13-10-------|
|---------------------------------------------------------------------------------|
|-13p-10-------------------13p-10--------------------13p-10-----------------------|


|---------------------------------------------------------------------------------|
|---------------------------------------------------------------------------------|
|----------------------------------10-10-------------------------------------8b---|
|--------10-10--13-13--10-----------------13-13--10---------10-10--13-13-10-------|
|---------------------------------------------------------------------------------|
|-13p-10-------------------13p-10--------------------13p-10-----------------------|

|---------------------------------------------------------------------------------|
|---------------------------------------------------------------------------------|
|----------------------------------10-10-------------------------------------10b--|
|--------10-10--13-13--10-----------------13-13--10---------10-10--13-13-10-------|
|---------------------------------------------------------------------------------|
|-13p-10-------------------13p-10--------------------13p-10-----------------------|

|---------------------------------------------------------------------------------|
|---------------------------------------------------------------------------------|
|----------------------------------10-10-------------------------------------10b--|
|--------10-10--13-13--10-----------------13-13--10---------10-10--13-13-10-------|
|---------------------------------------------------------------------------------|
|-13p-10-------------------13p-10--------------------13p-10-----------------------|


CHORUS 2: guitar 1
|-----|
|-----|
|-10b-| sustains the bend note and gets feedback
|-----|
|-----|
|-----|


Guitar 2
|-----------------|
|-----------------|
|-----------------|
|-3-3-3h4p3--1-3--|
|-3-3-3h4p3--1-3--|
|-3-3-3h4p3--1-3--|

CHORUS END:
|------------------|
|------------------|
|------------------|
|-8--5-11-10-8--5--|
|-6--3--9-8--6--3--|
|------------------|

VERSRE 3:
|--------------------------------------------------------------------|
|--------------------------------------------------------------------|
|------------------------------8-8------------------------------8b---|
|--------8-8--11-11-8--------------11-11-8--------8-8-11-11-8-8------|
|--------------------------------------------------------------------|
|--11p-8--------------11p-8----------------11p-8---------------------|

|--------------------------------------------------------------------|
|--------------------------------------------------------------------|
|------------------------------8-8------------------------------6b---|
|--------8-8--11-11-8--------------11-11-8--------8-8-11-11-8-8------|
|--------------------------------------------------------------------|
|--11p-8--------------11p-8----------------11p-8---------------------|

|--------------------------------------------------------------------|
|--------------------------------------------------------------------|
|------------------------------8-8------------------------------8b---|
|--------8-8--11-11-8--------------11-11-8--------8-8-11-11-8-8------|
|--------------------------------------------------------------------|
|--11p-8--------------11p-8----------------11p-8---------------------|

|--------------------------------------------------------------------|
|--------------------------------------------------------------------|
|------------------------------8-8------------------------------8b---|
|--------8-8--11-11-8--------------11-11-8--------8-8-11-11-8-8------|
|--------------------------------------------------------------------|
|--11p-8--------------11p-8----------------11p-8---------------------|


CHORUS3:
|----------------------------------------------------|
|----------------------------------------------------|
|----------------------------------------------------|
|-8--8-6-8-8--6--6-6--8-8--8--6-6--8-8--10--8--6--6--|
|-8--8-6-8-8--4--6-6--8-8--6--6-6--8-8--8---6--4--6--|
|-8--8-6-8-8-----6-6--8-8-----6-6--8-8------------6--|

LYRICS
Painted parade, a slave to the trade, 
can't sleep in the bed that you've made 
Daddy was wrong, you could have been strong, 
but you've been alone far too long

You'll never be pure, yes madam, yes sir
you've always obeyed, to be sure
Feet to the fire, they call you a liar
this cannot be what you desire

Council the weak, they think you're a freak,
a future that's hopelessly bleak
Confused by success, your life is a mess,
yet they can convince you you're blessed

Don't come with me, I won't set you free,
'cause that's not where you need to be
And no, I'm not confused, although you're abused,
I see it's this life that you choose

Painted parade, a slave to the trade,
can't sleep in the bed that you've made
Daddy was wrong, you could have been strong,
but you've been alone far too long

You'll never be pure, yes madam, yes sir
you've always obeyed, to be sure
Feet to the fire, they call you a liar
this cannot be what you want
Добавлено: 19.11.2015
Другие материалы по этой песне:
  • Аккорды и текст

Страница создана 19.11.2015
http://primanota.ru/red-fang/painted-parade-chords.htm
Привет, Гость.
Предлагаем пройти революционный курс по гитаре.
Подарок от PrimaNota.Ru, забирай!