PrimaNota.ru - самый крупный в мире бесплатный архив песенных текстов, аккордов, табулатур и нот


Red Fang - Into The Eye - таба, видео

Регистрация Запомнить меня
Войти через:  Facebook Google Twitter Vk Yandex Mail.ru

Red Fang - Into The Eye - таба, видео

Печатать
Просмотров: 66
-------------------------------------------------------------------------------
                            Red Fang - Into The Eye
-------------------------------------------------------------------------------
Tabbed by: Jaytee805
E-mail: jaytee805@gmail.com

Tuning: Drop D

Here goes the intro:
e|---------------------------------------------------------------------------|
B|---------------------------------------------------------------------------|
G|---6-6-6-8----------------6-6-6-8------------------------------------------|
D|---6-6-6-8----------------6-6-6-8------------------------------------------|
A|---4-4-4-6----------------4-4-4-6------------------------------------------|
E|--------------1-1^2^1-0-------------1-1^2^1-0------------------------------|

Play that part twice, then come into the verse:
e|---------------------------------------------------------------------------|
B|---------------------------------------------------------------------------|
G|---6-6-6-8-----------------6-6-6-8-----------------------------------------|
D|---6-6-6-8-----------------6-6-6-8-----------------------------------------|
A|---4-4-4-6-1-1-1-1-1-0-0-0-4-4-4-6-1-1-1-1-1-4-4-4-------------------------|
E|-----------1-1-1-1-1-0-0-0---------1-1-1-1-1-4-4-4-------------------------|

e|---------------------------------------------------------------------------|
B|---------------------------------------------------------------------------|
G|---6-6-6-8-----------------6-6-6-8--8--8-----------------------------------|
D|---6-6-6-8-----------------6-6-6-8--8--8-----------------------------------|
A|---4-4-4-6-1-1-1-1-1-0-0-0-4-4-4-6--6--6-5--5-4-4-4------------------------|
E|-----------1-1-1-1-1-0-0-0---------------5--5-4-4-4------------------------|

Play this whole part twice, but don't go to the F# power chord during the second time of 
the muted part. Then comes the chorus:
e|---------------------------------------------------------------------------|
B|---------------------------------------------------------------------------|
G|---8---------8---------8---------------------------------------------------|
D|---8---------8---------8---------------------------------------------------|
A|---6-7--7--7-6-6--6--6-6-7--7--7-7-6-4-4-----------------------------------|
E|-----7--7--7---6--6--6---7--7--7-7-6-4-4-----------------------------------|

Just play that until you don't, basically four times, and hold the F# power chord a 
little bit longer. Right after that, hold this octave arrangement:
e|---------------------------------------------------------------------------|
B|---------------------------------------------------------------------------|
G|---11-11-11-11-11-11-11-11-11----------------------------------------------|
D|---------------------------------------------------------------------------|
A|----8--8--8--8--8--8--8--8--8----------------------------------------------|
E|---------------------------------------------------------------------------|

Then come back into the intro and jam on that for a while. And then back to the verse, 
exactly the same as the first. Do the chorus again after that. Then, at the end of the 
second chorus, it does this:
e|---------------------------------------------------------------------------|
B|---------------------------------------------------------------------------|
G|---------------------------------------------------------------------------|
D|---------------------------------------------------------------------------|
A|---4-4-4-4-4-4-4-----6-----7-----------------------------------------------|
E|---4-4-4-4-4-4-4-----6-----7-----------------------------------------------|

Then comes right into this jam part:
e|---------------------------------------------------------------------------|
B|---------------------------------------------------------------------------|
G|-------3-----------2----------3----------2---------------------------------|
D|---------------------------------------------------------------------------|
A|---1-------1-0-1------1-0-1------1-0-1------1-0----------------------------|
E|---1-------1-0-1------1-0-1------1-0-1------1-0----------------------------|

Then begin to play this part over it:
e|---------------------------------------------------------------------------|
B|---11-11-11-11-11-11-11-11-11-11-10-10-10-10-10-10-------------------------|
G|---------------------------------------------------------------------------|
D|----8--8--8--8--8--8--8--8--8--8--7--7--7--7--7--7-------------------------|
A|---------------------------------------------------------------------------|
E|---------------------------------------------------------------------------|

e|---------------------------------------------------------------------------|
B|---10-9--9--9--9--9--9--9--9--10-10-10-10-10-10-10-------------------------|
G|---------------------------------------------------------------------------|
D|----7--6--6--6--6--6--6--6--6--7--7--7--7--7--7--7-------------------------|
A|---------------------------------------------------------------------------|
E|---------------------------------------------------------------------------|

e|---------------------------------------------------------------------------|
B|---11-11-11-11-11-11-11-11-11-11-10-10-10-10-10-10-------------------------|
G|---------------------------------------------------------------------------|
D|----8--8--8--8--8--8--8--8--8--8--7--7--7--7--7--7-------------------------|
A|---------------------------------------------------------------------------|
E|---------------------------------------------------------------------------|

e|---------------------------------------------------------------------------|
B|---9--11-11-11-11-11-11-11-11-13--13--13--13--13--13--13-------------------|
G|---------------------------------------------------------------------------|
D|---7--9--9--9--9--9--9--9--9--11--11--11--11--11--11--11-------------------|
A|---------------------------------------------------------------------------|
E|---------------------------------------------------------------------------|

Then go to this chord progression:
e|---------------------------------------------------------------------------|
B|---------------------------------------------------------------------------|
G|---------------------------------------------------------------------------|
D|---------------------------------------------------------------------------|
A|---6--7--4---6-7-4-6--7--4--4--6-7-----------------------------------------|
E|---6--7--4---6-7-4-6--7--4--4--6-7-----------------------------------------|

Then play the octave lead before it with the power chord to single-note riff in the 
background. And again repeat the cycle to the chord progression. Then this happens:
e|---------------------------------------------------------------------------|
B|---------------------------------------------------------------------------|
G|---------------------------------------------------------------------------|
D|---13-13-13-13-13-13-13-13-13-13-13-13-13-13-13-13-13-13-13-13-------------|
A|---------------------------------------------------------------------------|
E|---------------------------------------------------------------------------|

Then go back into the verse, but with the first three parts shorter, and the last part 
longer. The song ends like this:
e|---------------------------------------------------------------------------|
B|---------------------------------------------------------------------------|
G|---6-6-6-------------------------------------------------------------------|
D|---6-6-6-------------------------------------------------------------------|
A|---4-4-4-1-----------------------------------------------------------------|
E|---------1-----------------------------------------------------------------|

That's it for now. Go check the new album. Tab for Crows in Swine on mah profile if ya 
need it.

************************************
KEY TO SUCCESS:

| /   slide up
| \   slide down
| h   hammer-on
| p   pull-off
| ~   vibrato
| +   harmonic
| x   Mute note
| ^   Bend
************************************

E-mail me^if you got any questions or tabbing suggestions/requests! All styles of music 
are cool man!
Добавлено: 28.11.2013
Другие материалы по этой песне:
  • Аккорды и текст

Страница создана 28.11.2013
http://primanota.ru/red-fang/into-the-eye-chords.htm
Привет, Гость.
Предлагаем пройти революционный курс по гитаре.
Подарок от PrimaNota.Ru, забирай!