PrimaNota.ru - самый крупный в мире бесплатный архив песенных текстов, аккордов, табулатур и нот


Red Fang - Human Herd - таба, видео

Регистрация Запомнить меня
Войти через:  Facebook Google Twitter Vk Yandex Mail.ru

Red Fang - Human Herd - таба, видео

Печатать
Просмотров: 84
                                Human Herd - Red Fang


Hey everyone,
here's my try at tabbing Human Herd by Red Fang. This is by no mean 100% accurate, 
but it should sound close enough. Enjoy !
Growmph


-------------------------------------------------------------------------------------------------------------


\ Slide
x Muted note
~ Let ring
* Bend & release
^ Hammer / Pull off

Std Tuning (EADGBE)

E-----------------|-------------------|-----------------|-------------------|\
B-----------------|-------------------|-----------------|-------------------| \
G-----------------|----------------8\9|-9-9-9-9-9-9-8-8-|8-8-8-6-6-6--------|  \ INTRO
D-8-8-8-8-8-8-8-8-|8-8-8-8-8-8-8-8-8\9|-9-9-9-9-9-9-8-8-|8-8-8-6-6-6-6-6\8--|  /
A-8-8-8-8-8-8-8-8-|8-8-8-8-8-8-8-8-6\7|-7-7-7-7-7-7-6-6-|6-6-6-4-4-4-6-6\8--| /
E-6-6-6-6-6-6-6-6-|6-6-6-6-6-6-6-6----|-----------------|------------4-4\6--|/

E-----------------|-------------------|-----------------|-------------------|\
B-----------------|----------------8\9|-x-x-x-x-x-x-9\8-|x-x-6\8-x-x--------| \
G-----------------|----------------8\9|-x-x-x-x-x-x-9\8-|x-x-6\8-x-x--------|  \ VERSE
D-x-x-x-8-x-x-x-x-|x-6\8-x-x-x-x-xx6\7|-x-x-x-x-x-x-7\6-|x-x-4\6-x-x-6\8----|  /
A-x-x-x-8-x-x-x-x-|x-6\8-x-x-x-x-xx---|-----------------|------------6\8----| /
E-x-x-x-6-x-x-x-x-|x-4\6-x-x-x-x-xx---|-----------------|------------4\6----|/


E-----------------|-------------------|-----------------|-------------------|\
B-----------------|------6-6\8-8-9-8-6|-----------------|------6-6\8-8-9-8-6| \
G-3\6~-----3\5~---|------6-6\8-8-9-8-6|-3\6~-----3\5~---|------6-6\8-8-9-8-6|  \ CHORUS
D-3\6~-----3\5~---|6\8~--4-4\6-6-7-6-4|-3\6~-----3\5~---|6\8~--4-4\6-6-7-6-4|  /
A-1\4~-----1\3~---|4\6~---------------|-1\4~-----1\3~---|4\6~---------------| /
E-----------------|4\6~---------------|-----------------|4\6~---------------|/


E-                |                   |                 |-------------------------------|\
B-                |                   |                 |-------------------------------| \ 
G-       .        |        .          |        .        |-------------------------------|  \ CHORUS ENDING
D-                |                   |                 |6-6-6-6-6-6-6-6-5-5-5-5-5-5-5-5|  /
A-                |                   |                 |6-6-6-6-6-6-6-6-5-5-5-5-5-5-5-5| /
E-                |                   |                 |4-4-4-4-4-4-4-4-3-3-3-3-3-3-3-3|/


E-----------------|----------------------|\
B-----------------|----------------------| \
G-----6-6*----6-6*|-----6-6*----6-6^8^6 6|  \ RIFF A
D-8-8-----8-8-----|-8-8-----8-8--------8-|  /
A-----------------|----------------------| /
E-----------------|----------------------|/


E---------------------------------------|\
B---------------------------------------| \
G---------------6*---6*-----------------|  \ RIFF B
D-----------8~----8----8----------------|  /
A-------4-6--------7~----6~-4-6^4-------| /
E-6~-4^6-------------------------6^4-6~-|/


E---------------------------------------|\
B---------------------------------------| \
G---------------6*-9~--6*-9~------------|  \ RIFF B bis
D-----------8~----8------8--------------|  /
A-------4-6-----------------4-6^4-------| /
E-6~-4^6-------------------------6^4-6~-|/


Song structure :
INTRO x 4
VERSE x 4
CHORUS x 3
CHORUS ENDING
RIFF A x 2
VERSE x 4
CHORUS x 3
CHORUS ENDING
RIFF B x 3
RIFF B bis 
VERSE + RIFF B x 3,5 (Listen to the song, it cuts halfway through the verse)
Добавлено: 19.11.2015
Вам также может быть интересно:
Другие материалы по этой песне:
  • Аккорды и текст

Страница создана 19.11.2015
http://primanota.ru/red-fang/human-herd-chords.htm
Привет, Гость.
Предлагаем пройти революционный курс по гитаре.
Подарок от PrimaNota.Ru, забирай!