PrimaNota.ru - самый крупный в мире бесплатный архив песенных текстов, аккордов, табулатур и нот


Red Fang - Good To Die - таба, видео

Регистрация Запомнить меня
Войти через:  Facebook Google Twitter Vk Yandex Mail.ru

Red Fang - Good To Die - таба, видео

Печатать
Просмотров: 81
Red fang-good to die
Tabbed by ear
Enjoy

Drop D tuning

INTRO:
e|-------------------------------------------|
B|-------------------------------------------|
G|-----5-5-5-5-5-5-5---------5-5-5-5-5-5--7b-|
D|-------------------------------------------|
A|-5--7-----------------5--7-----------------|
D|-5--7-----------------5--7-----------------|


TRANSITION:
|--------------------------|
|--------------------------|
|--------------------------|
|--------------------------|
|-7--5--8---8--7--5--8--7--|
|-7--5--8---8--7--5--8--7--|

VERSE:
|-----------------------------|
|-----------------------------|
|-----------------------------|
|-----------------------------|
|--7---------8--------7-----6-|
|--7---------8--------7-----6-|
Strum each chord until it changes


CHORUS:
e|-------------------------------------------|
B|-------------------------------------------|
G|-----5-5-5-5-5-5-5---------5-5-5-5-5-5--7b-|
D|-------------------------------------------|
A|-5--7-----------------5--7-----------------|
D|-5--7-----------------5--7-----------------|

VERSE 2:
|-----------------------------|
|-----------------------------|
|-----------------------------|
|-----------------------------|
|--7---------8--------7-----6-|
|--7---------8--------7-----6-|

POST VERSE:
|---------------------------------------------------------------------------|
|---------------------------------------------------------------------------|
|---------------------------------------------------------------------------|
|----------5/7-7------------5/7-7------------5/7-7-----7-8-8--7--5--7--5----|
|--5h7-7---3/5-5----5h7-7---3/5-5----7h8-8---3/5-5-----5-6-6--5--3--5--3----|
|--5h7-7------------5h7-7------------7h8-8----------------------------------|

GUITAR 2:
|---------------------------------------------------------------|
|---------------------------------------------------------------|
|---------------------------------------------------------------|
|-------5--7---------5--7---------------------------------------|
|-------------------------------------------5--6-6--5--3--5--3--|
|-7-5-7------5-7-5-7-------7-8-7-8-7-8-7-8----------------------|

END:
|-----------------|
|-----------------|
|-7--5------------|
|------7---3---/7-|
|-----------------|
|-----------------|

BREAK:
|------------------------------------------------------|
|------------------------------------------------------|
|-0-h7-10-(x8)--0-h7-9-(x4)--0h7-12-(x2)--0-h9-12-(x2)-| hopefully this part is clear enough
|------------------------------------------------------|Comment if there is any problems understanding
|------------------------------------------------------|
|------------------------------------------------------|

OUTRO:
|------------------------------------------------------------------|
|------------------------------------------------------------------|
|------------------------------------------------------------------|
|-----------------7----------------------7--------7--8-10--12--13--|
|-5---6---8---6---5-------5---6---8---6--5--------5--6--8--10--11--|
|-5---6---8---6-----------5---6---8---6----------------------------|

END ON:
|-------------------------------|
|-------------------------------|
|-------------------------------|
|-------------------------------|
|--7--5--0--7--5--0---7--8--7/--|
|--7--5--0--7--5--0---7--8--7/--|

LYRICS:
I think I got a reason, I don't think I don't try
I think I got a reason, and I'll piss in your sky
I think I got a reason, I think I don't try
I think I got a reason, and I'm ready to die

Winters come and the sun hasn't shown his face it all
Every time that he wakes medicates with alcohol
He's depressed, it's the best time of year to end it all
Take a half dozen pills plus a fifth that equals problem solved

I think I got a reason, I don't think I don't try
I think I got a reason, and I'm ready to die

Winters here kick it off with a cough and a cigarette
Your poor bodies done, dying lungs, spewing blackened breath
Go ahead take a drink if you think it will ease your mind
You knew it never could, does it feel really good to die? Yeah.....


That which was never good, will never go bad
That which was never good, will never go bad
Best thing you never had
Добавлено: 19.11.2015
Другие материалы по этой песне:

Страница создана 20.06.2014
http://primanota.ru/red-fang/good-to-die-chords.htm
Привет, Гость.
Предлагаем пройти революционный курс по гитаре.
Подарок от PrimaNota.Ru, забирай!