PrimaNota.ru - самый крупный в мире бесплатный архив песенных текстов, аккордов, табулатур и нот


Red Fang - Crows In Swine - таба, видео

Регистрация Запомнить меня
Войти через:  Facebook Google Twitter Vk Yandex Mail.ru

Red Fang - Crows In Swine - таба, видео

Печатать
Просмотров: 98
-------------------------------------------------------------------------------
                           Red Fang - Crows In Swine
-------------------------------------------------------------------------------
Tabbed by: Jaytee805
E-mail: jaytee805@gmail.com

Tuning: Drop D

Alrighty then, so the intro begins rather abruptly, like this:
e|---------------------------------------------------------------------------|
B|---------------------------------------------------------------------------|
G|---------------------------------------------------------------------------|
D|---------------------------------------------------------------------------|
A|---6h7p6-0-6h7p6-0-4h5-5-5-5h6-6-6-6h7p6-0-6h7p6-0-------------------------|
E|---------0-------0-----------------------0-------0-------------------------|

Hold that last D power chord, then come into the main riff, repeating the first part of 
the intro riff. Then we get to the verse.
e|---------------------------------------------------------------------------|
B|---------------------------------------------------------------------------|
G|---------------------------------------------------------------------------|
D|---------------------------------------------------------------------------|
A|---3--0--1--0---4h5-5-5-5h6-6-6--3--0--1--0---4h5-5-5-5h6-6-6--------------|
E|---3--0--1--0--------------------3--0--1--0--------------------------------|

Just play that part twice for the verse, 'cause then you do this octave thing:
e|---------------------------------------------------------------------------|
B|---------------------------------------------------------------------------|
G|---7--8--7--13-------------------------------------------------------------|
D|-----------------4h5-5-5-5h6-6-6-------------------------------------------|
A|---5--6--5--11--------------------3--0--1--0---4h5-5-5-5h6-6-6-------------|
E|----------------------------------3--0--1--0-------------------------------|

Then we get to the first chorus, which is as follows:
e|---------------------------------------------------------------------------|
B|---------------------------------------------------------------------------|
G|---10--10-10--10-10-10--10-10-10-10----------------------------------------|
D|---------------------------------------------------------------------------|
A|----8---8--8---8--8--8---8--8--8--8--3-2-3---------------------------------|
E|-------------------------------------3-2-3---------------------------------|

Play the above part twice, then go to this:
e|---------------------------------------------------------------------------|
B|---------------------------------------------------------------------------|
G|---------------------------------------------------------------------------|
D|---10---10-10-10-10--12---12b13--10---10-10-10-10--------------------------|
A|----8----8--8--8--8--10---10b11---8----8--8--8--8--5--5h6-3----------------|
E|---------------------------------------------------5--5h6-3----------------|

Then go back to the part above once. Then play the verse again just as it was before. 
Then it goes back to the main riff as many times as it is played in the intro. There is a 
little solo part over that:
e|---------------------------------------------------------------------------|
B|---/13--13-13--13--13--13--13--13--13--13--/15-15-15-15-15-15----16--------|
G|---------------------------------------------------------------------------|
D|---------------------------------------------------------------------------|
A|---------------------------------------------------------------------------|
E|---------------------------------------------------------------------------|

Again, it goes back to the chorus. Then to this part:
e|-------------------------11------------------------------------------------|
B|---13--10--13--14--13-10----11-13--10--13--14--17-16-11-14-----------------|
G|---------------------------------------------------------------------------|
D|---------------------------------------------------------------------------|
A|---------------------------------------------------------------------------|
E|---------------------------------------------------------------------------|


e|-------------------------11------------------------------------------------|
B|---13--10--13--14--13-10----11---------------------------------------------|
G|---------------------------------------------------------------------------|
D|---------------------------------------------------------------------------|
A|--------------------------------10--7--10--11--10-7-8-10-------------------|
E|--------------------------------10--7--10--11--10-7-8-10-------------------|

After the break back into the power chords, strum on this part:
e|---------------------------------------------------------------------------|
B|---------------------------------------------------------------------------|
G|--------------------------------------------11-11-11-11-11-11-11-11--------|
D|---------------------------------------------------------------------------|
A|---12---12---12---12---12---12---12---12----9--9--9--9--9--9--9--9---------|
E|---12---12---12---12---12---12---12---12-----------------------------------|

Play that part three times, and continue to play it as the song leads into this:
e|---------------------------------------------------------------------------|
B|---------------------------------------------------------------------------|
G|---7--5--8-----------------------------------------------------------------|
D|------------5h7-7h8--------------------------------------------------------|
A|---------------------------------------------------------------------------|
E|---------------------------------------------------------------------------|

Play that in the gaps of the previous part, and soon harmonize with the octave. The song 
eventually just craps out. That's all - good luck!

************************************
KEY TO SUCCESS:

| /   slide up
| \   slide down
| h   hammer-on
| p   pull-off
| ~   vibrato
| +   harmonic
| x   Mute note
| ^   Bend
************************************

E-mail me^if you got any questions or tabbing suggestions/requests! All styles of music 
are cool man!
Добавлено: 05.02.2014
Другие материалы по этой песне:
  • Аккорды и текст

Страница создана 05.02.2014
http://primanota.ru/red-fang/crows-in-swine-chords.htm
Привет, Гость.
Предлагаем пройти революционный курс по гитаре.
Подарок от PrimaNota.Ru, забирай!