PrimaNota.ru - самый крупный в мире бесплатный архив песенных текстов, аккордов, табулатур и нот


Red Fang - Clear Seeing - таба, видео

Регистрация Запомнить меня
Войти через:  Facebook Google Twitter Vk Yandex Mail.ru

Red Fang - Clear Seeing - таба, видео

Печатать
Просмотров: 106
Yob- clear seeing

Tabbed by ear

Enjoy:)

Drop A#


INTRO: with wah
C |---------|
G |---------|
Eb|-7-------|
A#|---------|
F |---------|
A#|---------|

VERSE:
C |-/---------------------------------------------------------------------------------|
G |-/---------------------------------------------------------------------------------|
Eb|-/-----------------------------------------------------------------------------5/7-|
A#|-/----0--3--0--3--0---3--0--3--5--3--0--3--0---3--0--3--5-5/6/5--3-3--0-0------5/7-|
F |-/----0--3--0--3--0---3--0--3--5--3--0--3--0---3--0--3--5-5/6/5--3-3--0-0------3/5-|
A#|-/----0--3--0--3--0---3--0--3--5--3--0--3--0---3--0--3--5-5/6/5--3-3--0-0----------|
   Slide in -----
Добавлено: 08.08.2015
Другие материалы по этой песне:
  • Аккорды и текст

Страница создана 08.08.2015
http://primanota.ru/red-fang/clear-seeing-chords.htm
Привет, Гость.
Предлагаем пройти революционный курс по гитаре.
Подарок от PrimaNota.Ru, забирай!