PrimaNota.ru - самый крупный в мире бесплатный архив песенных текстов, аккордов, табулатур и нот


Red Dragon Cartel - Deceived - таба, видео

Регистрация Запомнить меня
Войти через:  Facebook Google Twitter Vk Yandex Mail.ru

Red Dragon Cartel - Deceived - таба, видео

Печатать
Просмотров: 86
                      RED DRAGON CARTEL
                         "Deceived"
            From the album Red Dragon Cartel (2014)

Tuning: Db Ab Db Gb Bb Eb
Tempo: 152 bpm

INTRO/VERSES
    E S S S S E S S S S E S S   S S E S S S S E S S E S S
||----------------------------|--------------------------|
||o-7---------7---------7-----|-----7---------7-----7----|
||--7---------7---------7-----|-----6---------6-----6----|
||--7---------7---------7-----|-----7---------7-----7----|
||o-5-5-5-5-5-5-5-5-5-5-5-5-5-|-5-5-5-5-5-5-5-5-5-5-5-5-5|
||----------------------------|--------------------------|


  E S S S S E S S S S E S S   S S E S S S S Q   Q
|---------------------------|-----8------------------|
|-6---------6---------6-----|-----8---------6---6----|
|-5---------5---------5-----|-----5---------5---5----|
|-7---------7---------7-----|-----7---------7---7----|
|-5-5-5-5-5-5-5-5-5-5-5-5-5-|-5-5-5-5-5-5-5-5---5----|
|---------------------------|------------------------|


1st ending
  E S S S S E S S S S E S S   S S E S S S S Q  E E
|---------------------------|------------------3---|
|-6---------6---------6-----|-----6---------6----6-|
|-5---------5---------5-----|-----5---------5------|
|-5---------5---------5-----|-----5---------5------|
|-3-3-3-3-3-3-3-3-3-3-3-3-3-|-3-3-3-3-3-3-3-3------|
|---------------------------|----------------------|


  E S S S S E S S S S E S S    E E E E  E E E E
|---------------------------|--------------------||
|-5---------5---------5-----|-------------------o||
|-5---------5---------5-----|--------------------||
|-5---------5---------5-----|--------------------||
|-3-3-3-3-3-3-3-3-3-3-3-3-3-|------3---/8-7-5-3-o||
|---------------------------|-/5-7---7-----------||


2nd ending
  E S S S S E S S S S E S S   E S S S S E S S S S E S S
|---------------------------|----------------------------|
|-6---------6---------6-----|-5---------5---------5------|
|-5---------5---------5-----|-5---------5---------5------|
|-5---------5---------5-----|-5---------5---------5------|
|-3-3-3-3-3-3-3-3-3-3-3-3-3-|-3-3-3-3-3-3-3-3-3-3-3-3-3--|
|---------------------------|----------------------------|


  E S S S S E S S S S E S S     E E E E E E E E
|---------------------------|-------------------|
|-8---------8---------8-----|-------------------|
|-7---------7---------7-----|-------------------|
|-7---------7---------7-----|-------------------|
|-5-5-5-5-5-5-5-5-5-5-5-5-5-|-/10-8-7-5-----3---|
|---------------------------|-----------5-7---7-|


PRE-CHORUS
  W          E E E E E E E E   W          E E E E E Q.
|----------|-----------------|----------|----------------|
|----------|-6-----5-----3---|-3--------|---3---3---3----|
|-3--------|---3-----3-----3-|-2--------|---2---2---2----|
|-3--------|-----3-----3-----|-0--------|---0---0---0----|
|-1--------|-----------------|-0--------|----------------|
|----------|-----------------|-0--------|----------------|


  W          E E E E E E E E   H    H      H    H
|----------|-----------------|-----------|-----------|
|----------|-6-----5---------|-----------|-----------|
|-5--------|---5-----5---5---|-2----2----|-----------|
|-5--------|-----5-----5---5-|-2----4----|-5----7----|
|-3--------|-----------------|-0----0----|-0----0----|
|----------|-----------------|-----------|-----------|


CHORUS
                ~
  E E E E E E E E   +Q   E E E E E E   Q  E E E E E E   Q  E E E  E E E
|-----------------|------------------|----------------|-----------------|
|-----------------|------------------|----------------|-----------------|
|-----7---5-7---7-|-(7)--5---5-7-----|----------7-5---|----------10-9---|
|-0-0-0-0-0-0-0---|------0-0-0-0-0-0-|-3--3-3-3-3-3-3-|-5--5-5-5--5-5-5-|
|-----------------|------------------|-3--3-3-3-----3-|-5--5-5-5------5-|
|-----------------|------------------|-3--3-3-3-----3-|-5--5-5-5------5-|


                 ~~
  E E E E E E E  E    +E    E  E  E  E  E E E
|------------------|--------------------------|
|------------------|--------------------------|
|-----7---5-7---14-|-(14)--14-12-12-11-11-9-9-|
|-0-0-0-0-0-0-0--0-|--(0)---0--0--0--0--0-0-0-|
|------------------|--------------------------|
|------------------|--------------------------|


  PM|   PM  PM|     PM|     PM    PM
  E E E E E E E E   E E E E E E E E
|-----------------|------------------|
|-----------------|------------------|
|-----------------|-----------5-4----|
|-----3---3-----5-|-----5-----5-5----|
|-----3---3-----5-|-----5-----5-5----|
|-3-3-3-3-3-3-3-5-|-5-5-5-5-5-5-5-5--|


SOLO
  ~~~~~~~~~~~~~~~~~~~~~~~~~~~~~~~~~
  W            W              W             Q   E     E     H
|------------|-------------|--------------|----------------------|
|-3----------|-6-----------|-10-----------|---*10b12r10b12r10----|
|-5b7--------|-8b10--------|-12b14--------|----------------------|
|------------|-------------|--------------|----------------------|
|------------|-------------|--------------|----------------------|
|------------|-------------|--------------|----------------------|
*Hold string at 10th fret and bend behind nut to simulate whammy bar dive

   H        H          H        H
|-------------------|-------------------|
|-11-------13-------|-14-------16-------|
|-13b15----15b17----|-16b18----18b20----|
|-------------------|-------------------|
|-------------------|-------------------|
|-------------------|-------------------|


   Q.      Q      S  S  Q      S  S  Q    S  S  Q    Q
|---------------------------|-----------------------------|
|-18------18-----18h22p18\--|-18h22p18\--18h22p18\--18\---|
|-20b22---20b22-------------|-----------------------------|
|---------------------------|-----------------------------|
|---------------------------|-----------------------------|
|---------------------------|-----------------------------|


   Q.      Q.      S  S  S  S    E  Q      E  H
|-----------------------------|-----------------------|
|-18b20---18b20---15h18p15----|-15--------18----------|
|--------------------------17-|----17b19-----17b19----|
|-----------------------------|-----------------------|
|-----------------------------|-----------------------|
|-----------------------------|-----------------------|


   |--3--|      |--3--|
   Q  Q  Q  Q   S  S  S  E    Q   E  E  Q   E E
|-------12-14--12h14p12----|---------------------|
|-14-15-----------------15-|-14--12-10-12--10-8--|
|--------------------------|---------------------|
|--------------------------|---------------------|
|--------------------------|---------------------|
|--------------------------|---------------------|


      |-3--|  |-3--|  |-3--|
  E E E  E E  E  E E  E E  E   E  E  E  E E E E  E
|---9---12-9-----------------|----------------------|
|------------11--------------|----------------------|
|---------------12-9---------|----------------------|
|--------------------11-8----|----------8-8-9-9-11--|
|-------------------------10-|-9-11-11--------------|
|----------------------------|----------------------|


   S  S S  S S  S  S  S S  S S  S  S  S S  S
|--------------------------------------------|
|-------9-11-9----------9-11-9----------9-12-|
|-10-11--------11-10-11--------11-10-11------|
|--------------------------------------------|
|--------------------------------------------|
|--------------------------------------------|


  S  S  S  S S  S S  S  S  S S  S S  S E
|--------------------------------------------|
|-9----------9-11-9----------9-12-9----------|
|---11-10-11--------11-10-11--------11-------|
|--------------------------------------------|
|--------------------------------------------|
|--------------------------------------x\----|
                                       slide down

HALF TIME
                                     |--3--|  |-3--|
  H    H      H    H      W          Q  Q  Q  Q Q  Q
|-----------|-----------|----------|-----------------|
|-----------|-----------|----------|-----------------|
|-3----5----|-7----9----|-9--------|-9-10-12-10-9----|
|-----------|-----------|----------|--------------10-|
|-1----3----|-5----7----|-7--------|-----------------|
|-----------|-----------|----------|-----------------|


          |--3--|
   E Q.   Q  Q  Q    H.         E  E
|-----------------|------------------|
|-----------------|------------10-13-|
|--------------10-|-12b14------------|
|-10-8------12----|------------------|
|-----------------|------------------|
|-----------------|------------------|


                     |--3--|     |--3--|    |----3----|
   E     E  E  E     E  E  E     E  E  E    E      E  E  Q   Q   E  E    W
|-------------------------------10-------|-----------10---------------|---------|
|-------10-13-------10-13----------13-10-|--------10------------------|---------|
|-12b14-------12b14-------12b14----------|-12b14========12r=10--------|---------|
|----------------------------------------|----------------------12-10-|-12TP----|
|----------------------------------------|----------------------------|---------|
|----------------------------------------|----------------------------|---------|
                                                          Tremolo pick last note

Duration Legend
---------------
W - whole; H - half; Q - quarter; E - 8th; S - 16th; T - 32nd; X - 64th; a - acciaccatura
+ - note tied to previous; . - note dotted; .. - note double dotted
Uncapitalized letters represent notes that are staccato (1/2 duration)
Irregular groupings are notated above the duration line
Duration letters will always appear directly above the note/fret number it represents the
duration for.  Duration letters with no fret number below them represent rests.  Multi-
bar rests are notated in the form Wxn, where n is the number of bars to rest for.  Low
melody durations appear below the staff

Tablature Legend
----------------
 h   - hammer-on
 p   - pull-off
 b   - bend
 pb  - pre-bend
 r   - bend release (if no number after the r, then release immediately)
 /\  - slide into or out of (from/to "nowhere")
 s   - legato slide
 S   - shift slide
  - natural harmonic
[n]  - artificial harmonic
n(n) - tapped harmonic
 ~   - vibrato
 tr  - trill
 T   - tap
 TP  - trem. picking
 PM  - palm muting
\n/  - tremolo bar dip; n = amount to dip
 \n  - tremolo bar down
 n/  - tremolo bar up
/n\  - tremolo bar inverted dip
 =   - hold bend; also acts as connecting device for hammers/pulls
 <>  - volume swell (louder/softer)
 x   - on rhythm slash represents muted slash
 o   - on rhythm slash represents single note slash

Misc Legend
-----------
 |  - bar
||  - double bar
||o - repeat start
o|| - repeat end
*|  - double bar (ending)
 :  - bar (freetime)
 $  - Segno
 &  - Coda
Tempo markers -  = BPM(8/16=s8/s16), where s8 = swing 8ths, s16 = swing 16ths
Добавлено: 05.06.2016
Другие материалы по этой песне:
  • Аккорды и текст

Страница создана 05.06.2016
http://primanota.ru/red-dragon-cartel/deceived-chords.htm
Привет, Гость.
Предлагаем пройти революционный курс по гитаре.
Подарок от PrimaNota.Ru, забирай!