PrimaNota.ru - самый крупный в мире бесплатный архив песенных текстов, аккордов, табулатур и нот


Red Bacteria Vacuum - Free Soul - таба, видео

Регистрация Запомнить меня
Войти через:  Facebook Google Twitter Vk Yandex Mail.ru

Red Bacteria Vacuum - Free Soul - таба, видео

Печатать
Просмотров: 94
Уроки эстрадного вокала в Санкт-Петербурге
Red Bacteria Vacuum - Free Soul
Album: Killer Dust (2004)
Tuning: Half a step down
Tabbed by Hayden (HaydeN64) 04/02/13

Key:(relevant symbols)
~ = hold note longer (listen for timing)
x = mute

Intro / Chorus Part 3
eb|-----------------|
Bb|-----------------|
Gb|-----------------|
Db|-----------------|
Ab|-0-0-3-3---------|
Eb|---------0-0-3-4-|

Verse
eb|------------------------------|
Bb|------------------------------|
Gb|------------------------------|
Db|-7--7-7-7-7-7-7-7-7-7-7-7-10~-|
Ab|-7--7-7-7-7-7-7-7-7-7-7-7-10~-|
Eb|-5--5-5-5-5-5-5-5-5-5-5-5-8-~-|

Chorus Part 1
eb|-----------------------------------------------------------|
Bb|-----------------------------------------------------------|
Gb|-9--9-9-9-9-9-7--7-7-7-7-7-7-7-----------------------------|
Db|-9--9-9-9-9-9-7--7-7-7-7-7-7-7-7-7-5-7-7-7-5-7-7-7-5-7-7-7-|
Ab|-7--7-7-7-7-7-5--5-5-5-5-5-5-5-7-7-5-7-7-7-5-7-7-7-5-7-7-7-|
Eb|-------------------------------5-5-3-5-5-5-3-5-5-5-3-5-5-5-|
Aaahh-Aaahh..

Chorus Part 2
eb|-------------------------------|
Bb|-------------------------------|
Gb|-5--5-5-5-5-5------------------|
Db|-5--5-5-5-5-5-5--5-5-5-5-5-5-5-|
Ab|-3--3-3-3-3-3-5--5-5-5-5-5-5-5-|
Eb|--------------3--3-3-3-3-3-3-3-|
Yea yeah!

Ending
eb|---------------------|
Bb|---------------------|
Gb|---------------------|
Db|-7-x-7-x-7-x-7-x-7~~-|
Ab|-7-x-7-x-7-x-7-x-7~~-|
Eb|-5-x-5-x-5-x-5-x-5~~-|

Order
Intro x 4
Verse x 4
Chorus Part 1 x 3 
Chorus Part 2 x 1 
Chorus Part 3 x 4 
Verse x 4
Chorus Part 1 x 3
Chorus Part 2 x 1 
Chorus Part 3 x 8
Ending x 1

----------------------------------------------------------------------------------||
Notes:

- As per usual, being a track on 'Killer Dust' it's half a step down.
- The intro on the album starts off with additional filler notes right 
  before the Intro riff, possibly A| 5-5 or A|5 E|0, though a minute detail. 
- Any questions, put 'em through. Any problems i'll fix. 
- Live versions of these songs can be different but this is right on the album.
- The small gaps i put in are guides to a natural strum pattern which i feel fits,
  however the gaps and strumming numbers are merely a guideline, listen to the song.
.\,,/
Добавлено: 20.06.2013
Другие материалы по этой песне:
  • Аккорды и текст

Страница создана 20.06.2013
http://primanota.ru/red-bacteria-vacuum/free-soul-chords.htm
Привет, Гость.
Предлагаем пройти революционный курс по гитаре.
Подарок от PrimaNota.Ru, забирай!