PrimaNota.ru - самый крупный в мире бесплатный архив песенных текстов, аккордов, табулатур и нот


Red Bacteria Vacuum - Da Da Da - таба, видео

Регистрация Запомнить меня
Войти через:  Facebook Google Twitter Vk Yandex Mail.ru

Red Bacteria Vacuum - Da Da Da - таба, видео

Печатать
Просмотров: 77
Red Bacteria Vacuum - Da Da Da
Album: Killer Dust (2004)
Tuning: Half a step down
Tabbed by Hayden (HaydeN64) 06/02/13

Key:
~  = ring out
G1 = guitar one
G2 = guitar two
p1 = part one
p2 = part two

Verse
eb|-----------------|
Bb|-----------------|
Gb|-----------------|
Db|-7-7-7-6-6-6-5-5-|
Ab|-7-7-7-6-6-6-5-5-|
Eb|-5-5-5-4-4-4-3-3-|

Bridge
eb|-----------------------------------------------------------------|
Bb|-----------------------------------------------------------------|
Gb|-----------------------------------------------------------------|
Db|-6-6-6-6-6-6-6-6-7-7-7-7-7-7-7-7-4-4-4-4-4-4-4-4-5-5-5-5-5-5-5-5-|
Ab|-6-6-6-6-6-6-6-6-7-7-7-7-7-7-7-7-4-4-4-4-4-4-4-4-5-5-5-5-5-5-5-5-|
Eb|-4-4-4-4-4-4-4-4-5-5-5-5-5-5-5-5-2-2-2-2-2-2-2-2-3-3-3-3-3-3-3-3-|

Chorus
eb|-------------------------------|    eb|-------------------------------|
Bb|-------------------------------|    Bb|-------------------------------|
Gb|-------------------------------|    Gb|-9-9-9-8--8-8-7--7-7-7-7-7-7-7-|
Db|-7-7-7-6--6-6-5--5-5-5-5-5-5-5-|    Db|-7-7-7-6--6-6-5--5-5-5-5-5-5-5-|
Ab|-7-7-7-6--6-6-5--5-5-5-5-5-5-5-|    Ab|-------------------------------|
Eb|-5-5-5-4--4-4-3--3-3-3-3-3-3-3-|G1  Eb|-------------------------------|G2

Part X
eb|-------------------------------| |---------|   
Bb|-------------------------------| |---------|  
Gb|-------------------------------| |-5-5-5-5-|   
Db|-------------------------------| |-5-5-5-5-|   
Ab|-------------------------------| |-3-3-3-3-|
Eb|-5-5-5-4--4-4-3--3-3-0-3-0-3-0-| |---------|

Breakdown
eb|---------------|   |-----------------|
Bb|---------------|   |-----------------|
Gb|------7--7-7-7-|   |-----------------|
Db|-7-7--7--7-7-7-|   |-7-7-7-7-7-7-7-7-|
Ab|-7-7--5--5-5-5-|   |-7-7-7-7-7-7-7-7-|
Eb|-5-5-----------|p1 |-5-5-5-5-5-5-5-5-|p2

Alternate Verse
eb|-------------------------------|
Bb|-------------------------------|
Gb|---------------------5-5-5-5-5-|
Db|-7-7-7-6--6-6-5--5-5-5-5-5-5-5-|
Ab|-7-7-7-6--6-6-5--5-5-3-3-3-3-3-|
Eb|-5-5-5-4--4-4-3--3-3-----------|

End
eb|----------|
Bb|----------|
Gb|----------|
Db|-7~~~~~~~-|
Ab|-7~~~~~~~-|
Eb|-5~~~~~~~-|

Order:
Verse  x 16
Bridge x 4
Chorus x 8
Part X x 4 (Replace the Eb|3-0-3-0 with the Ab|3 stemmed power chord on second bar)
Breakdown: p1 x 7 p2 x 8
Bridge x 4
Chorus x 8
Alternate Verse x 12
Breakdown: p1 x 8
Verse  x 16
End.

------------------------------------------------------------------------------------||
Notes

- I've noted on the order about the 'Part X' Ab|3 power chord. Listen to the song
  and you'll get it. Otherwise, you don't really have to sub it in if not bothered. 
- The G2 role during the Chorus is just an overdub for completion sake, they don't 
  do it live. I also wrote it on the Db string for presentation, try find the same
  Octave on the Ab string, up around the 12th fret if you'd rather do a full chord. 
- This is pretty accurate according to 'Killer Dust', i've listened to all these 
  songs Hundreds of times, but if there's still an error or a question, do say it. 
- My gaps are sort of a clue to the strum pattern, not necessary but it would help 
  to just listen to the songs to get what i intend. 
  Okidoke. 
Добавлено: 10.11.2013
Другие материалы по этой песне:
  • Аккорды и текст

Страница создана 10.11.2013
http://primanota.ru/red-bacteria-vacuum/da-da-da-chords.htm
Привет, Гость.
Предлагаем пройти революционный курс по гитаре.
Подарок от PrimaNota.Ru, забирай!