PrimaNota.ru - самый крупный в мире бесплатный архив песенных текстов, аккордов, табулатур и нот


Red Bacteria Vacuum - Baby Blue - таба, видео

Регистрация Запомнить меня
Войти через:  Facebook Google Twitter Vk Yandex Mail.ru

Red Bacteria Vacuum - Baby Blue - таба, видео

Печатать
Просмотров: 108
Red Bacteria Vacuum - Baby Blue
Album: Killer Dust(2004)
Tuning: Half a step down
Tabbed by Hayden (HaydeN64) 01/02/13

key:(relevant symbols)
 > = Strum 8 times
G1 = Guitar 1
G2 = Guitar 2

Pre-verse
eb|-------------------------------|
Bb|-------------------------------|
Gb|---------------------5---------|
Db|-----5-------7-----5-------5---|
Ab|---5---5---7---7-3-------5---5-|
Eb|-3-------5-------------3-------|  

Verse
eb|------------------------------|
Bb|------------------------------|
Gb|---------------5-5-5----------|
Db|-5--5-5-7--7-7-5-5-5-5--5-5-5-|
Ab|-5--5-5-7--7-7-3-3-3-5--5-5-5-|
Eb|-3--3-3-5--5-5-------3--3-3-3-|   

Chorus
eb|------------------------------------|         eb|---------------------------------|
Bb|------------------------------------|         Bb|---------------------------------|
Gb|------------------------------------|         Gb|-7-7-7-7-7-7-7-7-5-5-5-5-5-5-5-5-|
Db|-9>-12>-2-2-2-5--5-5-5-2-2-2-5--5-5-|         Db|-7-7-7-7-7-7-7-7-5-5-5-5-5-5-5-5-|
Ab|-9>-12>-2-2-2-5--5-5-5-2-2-2-5--5-5-|         Ab|-5-5-5-5-5-5-5-5-3-3-3-3-3-3-3-3-|
Eb|-7>-10>-0-0-0-3--3-3-3-0-0-0-3--3-3-|x2 then  Eb|---------------------------------|x2  

Finale
eb|---------------------------|    eb|--------------|
Bb|---------------------------|    Bb|--12----------|
Gb|-------------5--5-5--------|    Gb|--------12----|
Db|-5--5-7--7-7-5--5-5-5--5-5-|    Db|-----12----12-|
Ab|-5--5-7--7-7-3--3-3-5--5-5-|    Ab|--------------|
Eb|-3--3-5--5-5--------3--3-3-|G1  Eb|--------------|G2 

Order:
Pre-verse x 6
Verse x 4
Chorus
Pre-verse x 6
Verse x 4
Chorus
Finale x 14 slower tempo on final stretch

--------------------------------------------------------------------------------|
Notes:
- In the Finale, the guitar 1 and 2 segments are played simultaneously
  for the same duration, though the 'guitar 2' part isn't essential. 
- For the Finale it's a similar layout to the verse, but different tempo.
- I intend to upload a tab for every track on 'Killer Dust' within a few days. 
- Sorry about the tuning, that's how they do it and it can't be done in standard.
- There's no multiplier next to the chorus because the order is on the tab. 

Enjoy :p

*** Red Bacteria Vacuum isn't in the UG database yet so here's a 
link to their website  http://konnichiwa-records.com/redbacteria.html
Добавлено: 08.10.2013
Другие материалы по этой песне:
  • Аккорды и текст

Страница создана 08.10.2013
http://primanota.ru/red-bacteria-vacuum/baby-blue-chords.htm
Привет, Гость.
Предлагаем пройти революционный курс по гитаре.
Подарок от PrimaNota.Ru, забирай!