PrimaNota.ru - самый крупный в мире бесплатный архив песенных текстов, аккордов, табулатур и нот


Red Animal War - When Fat Pigs Fly - таба, видео

Регистрация Запомнить меня
Войти через:  Facebook Google Twitter Vk Yandex Mail.ru

Red Animal War - When Fat Pigs Fly - таба, видео

Печатать
Просмотров: 82
Band  : Red Animal War
Song  : When Fat Pigs Fly
Album : Black Phantom Crusades

more information about the band : www.deepelm.com

Tabbed by bounav@free.fr
Last Update : 19-mai-2004

================================================= Tab>=====

>Verse :
 e|------------|------------| 4x
 B|666666666666|6664--4--4--|
 G|666666666666|6664--4--4-*|
 D|666666666666|6664--4--4-*|
 A|------------|------------|   last time strum
 E|------------|------------| --444- one time more

>Post-Verse :
 e|------------|
 B|------------|
 G|4444/6-----*|
 D|4444/6-----*|
 A|2222/4------|
 E|------------|

Play Verse and Post-Verse.

>Interlude :
 e|---------|---------|---------|---------|
 B|22222222-|44444444-|---------|---------|
 G|33333333-|44444444-|---------|---------|
 D|33333333-|44444444-|3343--44-|3343--44-|
 A|11111111-|22222222-|----66---|----66---|
 E|---------|---------|---------|---------|

 e|---------|---------|---------|---------|
 B|22222222-|44444444-|44444444-|44444444-|
 G|33333333-|44444444-|44444444-|44444444-|
 D|33333333-|44444444-|---------|---------|
 A|11111111-|22222222-|---------|---------|
 E|---------|---------|---------|---------|

 e|---------| 8x
 B|6----666-|
 G|6----666*|
 D|6----666*|
 A|4----444-|
 E|---------|

>Chorus :
 e|---------|1--------|2--------|4--------|6--------|
 B|6--------|2--------|2--------|4--------|6--------|
 G|6--------|3--------|4--------|6--------|6--------|
 D|6--------|---------|---------|6--------|7--------|
 A|4--------|---------|---------|---------|---------|
 E|---------|---------|---------|---------|---------|

 e|----9----|1--------|2--------|4--------|6--------|
 B|6--------|2--------|2--------|4--------|6--------|
 G|6--------|3--------|4--------|6--------|6--------|
 D|6--------|---------|---------|6--------|7--------|
 A|---------|---------|---------|---------|---------|
 E|---------|---------|---------|---------|---------|

 e|----9-----|----9-----|                                 \
 B|--7-----7-|--7-----7-|                                 |
 G|10----10--|10----10--|                                 |
 D|----------|----------|                                 |
 A|----------|----------|                                 |
 E|----------|----------|                                 |
                                                          |
 e|----1-----|----1-----|                                 |
 B|--2-----2-|--2-----2-|                                 |
 G|3-----3---|3-----3---|                                 |
 D|----------|----------|                                 |
 A|----------|----------|                                 |
 E|----------|----------|                               2X|
                                                          |
 e|----2-----|----2-----|                                 |
 B|--2-----2-|--2-----2-|                                 |
 G|4-----4---|4-----4---|                                 |
 D|----------|----------|                                 |
 A|----------|----------|                                 |
 E|----------|----------|                                 |
                                                          |
 e|--------4----------6-|             |----4--------6---| |
 B|----4----------6-----| then        |--4--4-----6--6--| |
 G|--6---6------6---6---| when played |-6-6--6---6-6--6-| |
 D|6---------/7---------| for the 2nd |6------6/7-------| |
 A|---------------------| time ormore |-----------------| |
 E|---------------------|             |-----------------| /

 e|----9-----9---------9-----9--| \
 B|--7-----7-----7---7---7------| |
 G|10----10----10--10------10---| |
 D|-----------------------------| |
 A|-----------------------------| |
 E|-----------------------------| |
                                  |
 e|----1-----1---------1-----1--| |
 B|--2-----2-----2---2---2------| |
 G|3-----3-----3---3-------3----| |
 D|-----------------------------| |
 A|-----------------------------| |
 E|-----------------------------| |2x
                                  |
 e|----2-----2---------2-----2--| |
 B|--2-----2-----2---2---2------| |
 G|4-----4-----4---4-------4----| |
 D|-----------------------------| |
 A|-----------------------------| |
 E|-----------------------------| |
                                  |
 e|--------4---------------6----| |
 B|----4-----4---------6-----6--| |
 G|--6---6-----6-----6---6-----6| |
 D|6-------------6/7------------| |
 A|-----------------------------| |
 E|-----------------------------| /

>Post Chorus:
 e|----------|----------|----------|----------|  2x
 B|666666666/|1010101010|222222222/|444444444-|
 G|666666666/|1010101010|222222222/|444444444*|
 D|----------|----------|----------|---------*|
 A|----------|----------|----------|----------|
 E|----------|----------|----------|----------|

Then play Verse and Post-Verse.

     
Добавлено: 04.09.2013
Другие материалы по этой песне:
  • Аккорды и текст

Страница создана 04.09.2013
http://primanota.ru/red-animal-war/when-fat-pigs-fly-chords.htm
Привет, Гость.
Предлагаем пройти революционный курс по гитаре.
Подарок от PrimaNota.Ru, забирай!