PrimaNota.ru - самый крупный в мире бесплатный архив песенных текстов, аккордов, табулатур и нот


Reckless Kelly - A Guy Like Me - бас-таба, видео

Регистрация Запомнить меня
Войти через:  Facebook Google Twitter Vk Yandex Mail.ru

Reckless Kelly - A Guy Like Me - бас-таба, видео

Печатать
Просмотров: 78
----------------------------------------------------------------------------
                  A Guy Like Me --Reckless Kelly
----------------------------------------------------------------------------Tabbed By : Cam Smith
Email : n67p@yahoo.com
Off their new album Bulletproof

This is my first tab. Pretty sure its all there. You just have to listen to it and put 
together. Have fun, it's a great song!!
If you have suggestions or comments please feel free to contact me.


Intro and Verse

g---------------------------------|
d-----------------------5-5-------|  X9
a-----7---8--7-7---7-7-------5--7-|
e---5---5--------8----------------|

Chorus


G---------------------------------|
D---------------------------------|  X1
A--8--8-8----------10-10-10-10----|
E----------8--8-8-----------------|

G---------------------------------------|
D---------------------------------------|  X4
A--8--8-8----------10--10-10--12--12-12-|
E----------8--8-8-----------------------|

Guitar Solo

G-----------------------------------|---------------------------------|
D-----------------------------------|---------------------------------|
A--8-8----7--10--12-----------------|--8-8--------------8-7-5---8--10-|
E------8-------------12p11--5-------|-------8-8--12p11----------------|


Chorus

Verse


Outro
G------------------------------------|
D------------------------------------|
A---------7-7-7--8-8-8--7-7-7--------|
E--5-5-5-----------------------5-----|
Добавлено: 26.01.2014
Другие материалы по этой песне:
  • Аккорды и текст

Страница создана 26.01.2014
http://primanota.ru/reckless-kelly/a-guy-like-me-chords.htm
Привет, Гость.
Предлагаем пройти революционный курс по гитаре.
Подарок от PrimaNota.Ru, забирай!