PrimaNota.ru - самый крупный в мире бесплатный архив песенных текстов, аккордов, табулатур и нот


Rebelution - Wake Up Call - бас-таба, видео

Регистрация Запомнить меня
Войти через:  Facebook Google Twitter Vk Yandex Mail.ru

Rebelution - Wake Up Call - бас-таба, видео

Печатать
Просмотров: 157
-------------------------------------------------------------------------------
                             wake up call - Rebelution
-------------------------------------------------------------------------------
Tabbed by: Tyler Bowles
E-mail: tibblesnbits513@yahoo.com

Tuning: standard

G|----------------------------|
D|----------------------------|
A|--2-2-2-2-4-2---------4-----|
E|--------------5-2-2-2-------|

G|-----------|
D|-----------|
A|-----------|
E|--5-4-2----|

G|----------------------------------------|
D|----------------------------------------|
A|--2-2-2-2-4-2---------4-4---------------|
E|--------------5-2-2-2-----4-4-5-4-2-----|

thats about it

| /  slide up
| \  slide down
| h  hammer-on
| p  pull-off
| ~  vibrato
| +  harmonic
| x  Mute note
===============================================================================
Добавлено: 03.09.2015
Другие материалы по этой песне:
  • Аккорды и текст

Страница создана 03.09.2015
http://primanota.ru/rebelution/wake-up-call-chords.htm
Привет, Гость.
Предлагаем пройти революционный курс по гитаре.
Подарок от PrimaNota.Ru, забирай!