PrimaNota.ru - самый крупный в мире бесплатный архив песенных текстов, аккордов, табулатур и нот


Rebelution - So High - таба, бас-таба, видео

Регистрация Запомнить меня
Войти через:  Facebook Google Twitter Vk Yandex Mail.ru

Rebelution - So High - таба, бас-таба, видео

Печатать
Просмотров: 236
Уроки эстрадного вокала в Санкт-Петербурге
-----------------------------------------------------------------
So High - Rebelution (Peace Of Mind)
-----------------------------------------------------------------
Tabbed by: Brian Zucker
Email: bnzucker@comcast.net
Tuning: Standard
e|---------------------------------------------------------------|
B|-----15-----------16-15-13-------------18-18-------------------|
G|--12-----------------------------------------17--15------------|
D|---------------------------------------------------------------|
A|---------------------------------------------------------------|
E|---------------------------------------------------------------|

e|---------------------------------------------------------------|
B|-----15-----------16-15-13--------------11-13-15---------------|
G|--12-----------------------------------------------------------|
D|---------------------------------------------------------------|
A|---------------------------------------------------------------|
E|---------------------------------------------------------------|

e|---------------------------------------------------------------|
B|-----15------15-15-16-15---13-----13--------13-15--------------|
G|--12------12-------------------12--------12-------15-15s17--15-|
D|---------------------------------------------------------------|
A|---------------------------------------------------------------|
E|---------------------------------------------------------------|

e|---------------------------------------------------------------|
B|-----15------15-15-16-15---13-----13~--------------------------|
G|--12------12-------------------12------------------------------|
D|---------------------------------------------------------------|
A|---------------------------------------------------------------|
E|---------------------------------------------------------------|


e|---------------------------------------------------------------|
B|-------------------1s3----1----1---3-3-1-----------------------|
G|---3---5--3----3-5------3----3---------------------------------|
D|---------------------------------------------------------------|
A|---------------------------------------------------------------|
E|---------------------------------------------------------------|

e|---------------------------------------------------------------|
B|-------------------1s3----1----1-------------------------------|
G|---3---5--3----3-5------3----3---------------------------------|
D|---------------------------------------------------------------|
A|---------------------------------------------------------------|
E|---------------------------------------------------------------|

e|-----15--------------------------------------------------------|
B|--------------------------s11----------------------------------|
G|--------15-14-12-----------------(play this twice)-------------|
D|---------------------------------------------------------------|
A|---------------------------------------------------------------|
E|---------------------------------------------------------------|

chords
   Gm          Cm
e|--3--3--3--3---3--3--3--3--------------------------------------|
B|--3--3--3--3---4--4--4--4--------------------------------------|
G|--3--3--3--3---5--5--5--5--------------------------------------|
D|--5--5--5--5---5--5--5--5--------------------------------------|
A|--5--5--5--5---3--3--3--3--------------------------------------|
E|--3--3--3--3---x--x--x--x--------------------------------------|

great track from Peace Of Mind... play this with phaser, delay, reverb, or anything 
else! great song to fool around with your effects.
Добавлено: 30.03.2012
Другие материалы по этой песне:
  • Аккорды и текст

Страница создана 30.03.2012
http://primanota.ru/rebelution/so-high-chords.htm
Привет, Гость.
Предлагаем пройти революционный курс по гитаре.
Подарок от PrimaNota.Ru, забирай!