PrimaNota.ru - самый крупный в мире бесплатный архив песенных текстов, аккордов, табулатур и нот


Rebelution - More Than Ever - таба, бас-таба, видео

Регистрация Запомнить меня
Войти через:  Facebook Google Twitter Vk Yandex Mail.ru

Rebelution - More Than Ever - таба, бас-таба, видео

Печатать
Просмотров: 171
sounds sweet, try this

Intro
e|-----------6---8---------------|
B|-----------6---8---9-8-6---6---|
G|-----------6---8---------8-----|
D|-------3---8--10---------------|
A|-----3-----8--10---------------|
E|-1-4-------6---8---------------|


Melody
e|-----8-----9-11--9-8-6-8-6------------------|
B|--9--9----11-13-11-9-8-9-8--9-8-8-8----8--9-|
G|-10------------------------10-8-8-8--8-8-10-|
D|------------------------------------10------|
A|--------------------------------------------|
E|--------------------------------------------|
    

e|----8-6-----|
B|---9----9-8-|
G|-10---------|
D|------------|
A|------------|
E|------------|
    short interlude

e|-----8----11--9-11-8--9------8-6---------------|
B|--9--9----13-11-13-9-11-8/9--9-8--9-8--9/11—-9-|
G|-10---------------------8/10-----10-8-10/12-10-|
D|-----------------------------------------------|
A|-----------------------------------------------|
E|-----------------------------------------------|
    third time use this

Verse
e|--8----6------8-----8-|
B|--9----6------8-----9-|
G|-10----6------8----10-|
D|-10----8-----10----10-|
A|--8----8-----10-----8-|
E|-------6------8-------|
   Fm  A#/Bbm  Cm    Fm

    upstrokes twice each

Bridge
{use same chords as verse, listen for rhythm}

Outro
e|--8-6----6-8-6-----6--------6-----|
B|6--------------9-8---9----9---9-8-|
G|----------------------------------|
D|----------------------------------|
A|----------------------------------|
E|----------------------------------|
   La la la la la


Just like I said before give me two weeks
When I come home I'll come and say hello
With hugs and kisses for you Mrs. how I've missed you so
Been gone forever nothing better than to see you though

And tell me how you been
Don't act surprised this is how I am
I'm feeling good and that's real
You and me should kick it more than ever

Remember me and you

Remember when we'd sit
Talk face to face and wonder whether we'd be making it
And chat for hours 'bout the leftist side of government
I'd sit and listen to your words and I'd be loving it

Now the times have changed
Older but we always stay the same
I'm filling up the whole lane
You and me should kick it more than ever

updated 11/01
Tabbed by: Coren cpappu@hotmail.com
Добавлено: 14.05.2012
Другие материалы по этой песне:
  • Аккорды и текст

Страница создана 14.05.2012
http://primanota.ru/rebelution/more-than-ever-chords.htm
Привет, Гость.
Предлагаем пройти революционный курс по гитаре.
Подарок от PrimaNota.Ru, забирай!