PrimaNota.ru - самый крупный в мире бесплатный архив песенных текстов, аккордов, табулатур и нот


Rebelution - Moonlight - таба, бас-таба, видео

Регистрация Запомнить меня
Войти через:  Facebook Google Twitter Vk Yandex Mail.ru

Rebelution - Moonlight - таба, бас-таба, видео

Печатать
Просмотров: 183
Moonlight by Rebelution

Standard Tuning

Main Riff/Intro:

e-------0-----------------------------------------|
b-----0-----3-2-------0-------0-------------------|
g---2------------2------2---2---2---2  Repeat X 6-|
d-2-----------------------2-------2---------------|
a-------------------------------------------------|
E-------------------------------------------------|

e----------------------                                 -----0-|
b-------2-3---3-2------                                 ---0---|
g-2-4-------------4-2-- Repeat X 4 Then                 -2-----|
d----------------------                                 -------|
a----------------------                                 -------|
E----------------------                                 -------|

Solo

e-------------------------------------------------------------------------|
b--------------------------------------------------10-10-10--12b-12b14r10-|
g-----------------------------6-6-6-9-9-9-11-11-11------------------------|
d-----------------7-7-7-9-9-9---------------------------------------------|
a--9-9-9-11-11-11---------------------------------------------------------|
E-------------------------------------------------------------------------|

e-------------------10----10-12---10-12-14--14-14-14--17--------|
b-12-10----10-12-14----14---------------------------------15-14-|
g---------------------------------------------------------------|
d---------------------------------------------------------------|
a---------------------------------------------------------------|
E---------------------------------------------------------------|

e--9/10--12---9------------10-12----10----10-12-14--14-14-14-16-17-|
b-10/12--14--10------10-14-------14----10--------------------------|
g------------------------------------------------------------------|
d------------------------------------------------------------------|
a------------------------------------------------------------------|
E------------------------------------------------------------------|

e-16h17-16-------17----------9/10--12---9---------------------|
b----------17-15----15-14---10/12--14--10---------------------|
g-------------------------------------------------------------|
d-------------------------------------------------------------|
a-------------------------------------------------------------|
E-------------------------------------------------------------|

Outro/End of Solo:

e-------------------------------------------------------------|
b-----2-3-2-------------2-2-----3-2-0-------------------------|
g-2-4-------4-2---------2-2-----------2-----2-----------------|
d---------------2h4-2---2-2-------------4-2-------------------|
a-------------------------------------------------------------|
E-------------------------------------------------------------|
Добавлено: 30.03.2012
Другие материалы по этой песне:
  • Аккорды и текст

Страница создана 30.03.2012
http://primanota.ru/rebelution/moonlight-chords.htm
Привет, Гость.
Предлагаем пройти революционный курс по гитаре.
Подарок от PrimaNota.Ru, забирай!