PrimaNota.ru - самый крупный в мире бесплатный архив песенных текстов, аккордов, табулатур и нот


Rebelution - Lost In Dreams - таба, видео

Регистрация Запомнить меня
Войти через:  Facebook Google Twitter Vk Yandex Mail.ru

Rebelution - Lost In Dreams - таба, видео

Печатать
Просмотров: 117
-------------------------------------------------------------------------------
                             Lost in Dreams - Rebelution
-------------------------------------------------------------------------------
Tabbed by: Tyler Bowles
E-mail: tibblesnbits513@yahoo.com

Tuning: standard
  Keyboard Intro
e|----------------------------------------------|
B|----------------------------------------------|
G|----------------------------------------------|
D|----------------------------------------------|
A|--7--5--------7--5---9--7--7--5----------7----|
E|--------3--5---------------------2/3--5-------|

  Main Lead
e|----------------------------------------|
B|---------12-12--12--8--10-10-10---------|
G|--9--12-------------------------12-11---|
D|----------------------------------------|
A|----------------------------------------|
E|----------------------------------------|

  Pre Chorus
e|-------------------------|---------------------------|
B|------------------10-10--|-----------8h10p8----------|
G|--9-9-11-11-12-12--------|-9-9-11-11--------12-11-9--|
D|-------------------------|---------------------------|
A|-------------------------|---------------------------|
E|-------------------------|---------------------------|

  Bass  Not positive what frequency its played at but heres both of them
e|---------------------|----------------------|--------|----------|
B|---------------------|----------------------|--------|----------|
G|---------------------|----------------------|--------|----------|
D|---------------------|----------9-9--7------|--------|--10~-9~--|
A|---------2-2-0-------|--7-7-(7)--------10-9-|--3~-2~-|----------|
E|-0-0-(0)-------3-3-2-|----------------------|--------|----------|

  Chorus  Eric uses some echo effect, but for the chorus just accent the high notes
          of both chords
          This song doesn't actually have typical reggae chords, but its fun to know 
          and jam to so here they are it, listen to the bass for the F chord timing
          
    Em     Am   F
e|--7------5--|--8----|
B|--8------5--|--10---|
G|--9------5--|--10---|
D|--9------7--|--10---|
A|--7------7--|--8----|
E|--X------5--|--X----|

e|----------------------------------------------|-----------------------|------------------|
B|---12-12-12-12-12-12-8-10-10-10-10-10-10------|-13-(Hold out or 8x)-12|-10h12p10---------|
G|-9---------------------------------------12-11|-----------------------|----------12-11-9-|
D|----------------------------------------------|-----------------------|------------------|
A|----------------------------------------------|-----------------------|--(Optional Fill)-
E|-----------------------------------------------|----------------------|(Not part of song)|


e|-------------------------|---------------------------|
B|------------------10-10--|--------------------17-17--|
G|--9-9-11-11-12-12--------|--14-14-16-16-17-17--------|
D|-------------------------|---------------------------|
A|-------------------------|---------------------------|
E|-------------------------|---------------------------|

e|---------------------|------------------------|
B|----------10h12p10---|-----------15h17p15-----|
G|--9-11-12----------9-|--14-16-17----------14--|
D|---------------------|------------------------|
A|---------------------|------------------------|
E|---------------------|------------------------|

************************************

| /   slide up
| \   slide down
| h   hammer-on
| p   pull-off
| ~   vibrato
| +   harmonic
| x   Mute note
| b   Bend
| pb  Pre-bend
| br  Bend release
| pbr Pre-bend release
| brb Bend release bend

************************************
Добавлено: 03.09.2015
Вам также может быть интересно:
Другие материалы по этой песне:
  • Аккорды и текст

Страница создана 03.09.2015
http://primanota.ru/rebelution/lost-in-dreams-chords.htm
Привет, Гость.
Предлагаем пройти революционный курс по гитаре.
Подарок от PrimaNota.Ru, забирай!