PrimaNota.ru - самый крупный в мире бесплатный архив песенных текстов, аккордов, табулатур и нот


Rebelution - Hate To Be The One - таба, бас-таба, видео

Регистрация Запомнить меня
Войти через:  Facebook Google Twitter Vk Yandex Mail.ru

Rebelution - Hate To Be The One - таба, бас-таба, видео

Печатать
Просмотров: 108
Уроки эстрадного вокала в Санкт-Петербурге
-------------------------------------------------------------------------------
                              "Hate To Be The One"
                                   Rebelution
                               Count Me In (2014)
---------------------------------------------------------------------------*****
                                                                           *dub*
                                                                           *****

Intro: (palm mute notes)
e|--7~---5~-----------------------------------------------------------------|
B|--7~---5~-----------------------------------------------------------------|
G|--8~---5~-----------------------------------------------------------------|
D|--7~---7~-----------------------------------------------------------------|
A|--9~---7~---(------2---------7----------9---------2)----------------------|
E|--7~---5~---(0-0-3-----5-5-8-----7-7-11-----0-0-3--)----------------------|

Intro fill
e|--------------------------------------------------------------------------|
B|--------------------------------------------------------------------------|
G|-----------2--0h2p0-------------------------------------------------------|
D|-----1--4------------4--1--2~~--------------------------------------------|
A|--2-----------------------------------------------------------------------|
E|--------------------------------------------------------------------------|



Verse reggae strummin
e|--7----7----5----5----7----7----7----7------------------------------------|
B|--8----8----5----5----7----7----8----8------------------------------------|
G|--9----9----5----5----8----8----9----9------------------------------------|
D|--9----9----7----7----7----7----9----9------------------------------------|
A|--7----7----7----7----9----9----7----7------------------------------------|
E|------------5----5----7----7----------------------------------------------|



Bridge  
e|--5~~--7~~--7~~-----------------------------------------------------------|
B|--5~~--7~~--8~~-----------------------------------------------------------|
G|--5~~--8~~--9~~-----------------------------------------------------------|
D|--7~~--7~~--9~~-----------------------------------------------------------|
A|--7~~--9~~--7~~-----------------------------------------------------------|
E|--5~~--7~~----------------------------------------------------------------|



Solo
e|--------7--10~--7--8~--8--7-----------------------------------------------
B|-----8-----------------------10--8------------/10~--7--8~--8p7------------
G|--9---------------------------------11\-8--11-------------------9---------
D|--------------------------------------------------------------------------
A|--------------------------------------------------------------------------
E|--------------------------------------------------------------------------

  --------7--10--8h10p8--7--8--7--8--7-7--8--7-----------------------7------
  -----8----------------------------------------10--8--10--7--8-/10-----8~~-
  --9~~~~~~~~~~-------------------------------------------------------------
  --------------------------------------------------------------------------
  --------------------------------------------------------------------------
  --------------------------------------------------------------------------

  --------------------------------------------------------------------------
  --8-8--10--12--13~~---7----8--10--12~~------------------------------------
  --9----11--12--14~~---8-8--9--11--12~~------------------------------------
  --------------------------------------------------------------------------
  --------------------------------------------------------------------------
  --------------------------------------------------------------------------

  --------7--10~--7--8--7-7--8--7--8--7-------------------------------------|
  -----8---------------------------------10--8--10---7--8--8/10--7--8\------|
  --9------------------------------------------------8--9--9/11--8--9\------|
  --------------------------------------------------------------------------|
  --------------------------------------------------------------------------|
  --------------------------------------------------------------------------|




Theres chunks of the solo throughout the song in the background 
Go support these guys 

*****
*dub*
************************************
| ()  palm mute
| /   slide up
| \   slide down
| h   hammer-on
| p   pull-off
| ~   vibrato
| ~~  ring
************************************
Добавлено: 01.08.2014
Другие материалы по этой песне:
  • Аккорды и текст

Страница создана 01.08.2014
http://primanota.ru/rebelution/hate-to-be-one-chords.htm
Привет, Гость.
Предлагаем пройти революционный курс по гитаре.
Подарок от PrimaNota.Ru, забирай!